999
DXF file: C:\Users\sesa63760\Dev\_Creo\CAD\MCADID0000243_3D-CAD\drw0001_1.dxf
999
Pro/ENGINEER 2019471 by Parametric Technology Corporation
  0
SECTION
  2
HEADER
  9
$ACADVER
  1
AC1024
  9
$DWGCODEPAGE
  3
ANSI_1252
  9
$EXTMAX
 10
417.1282862239
 20
589.938576231
 30
0.0
  9
$EXTMIN
 10
0.0
 20
0.0
 30
0.0
  9
$LIMMIN
 10
0.0
 20
0.0
  9
$LIMMAX
 10
417.1282862239
 20
589.938576231
  9
$VIEWCTR
 10
208.564143112
 20
294.9692881155
  9
$VIEWSIZE
 40
589.938576231
  9
$CLAYER
  8
0
  9
$LTSCALE
 40
38.4552553395
  9
$CELTYPE
  6
BYLAYER
  9
$DIMSCALE
 40
1.0
  9
$DIMASZ
 40
4.9658129312
  9
$DIMEXO
 40
1.0
  9
$DIMDLI
 40
26.5690855073
  9
$DIMEXE
 40
1.0
  9
$DIMCEN
 40
6.2926781465
  9
$DIMLFAC
 40
1.0
  9
$DIMBLK
  1
_FILLED
  9
$DIMALT
 70
0
  9
$DIMALTF
 40
0.0393700787
  9
$DIMTXT
 40
6.9521381037
  9
$DIMTOL
 70
1
  9
$DIMLIM
 70
0
  9
$DIMTFAC
 40
1.0
  9
$DIMTP
 40
0.01
  9
$DIMTM
 40
0.01
  9
$DIMGAP
 40
0.625
  9
$DIMDSEP
 70
46
  9
$AUNITS
 70
0
  9
$PDMODE
 70
3
  9
$PDSIZE
 40
0.3125
  9
$HANDSEED
  5
2DD
  9
$TILEMODE
 70
1
  9
$MEASUREMENT
 70
1
  9
$INSUNITS
 70
4
  0
ENDSEC
  0
SECTION
  2
CLASSES
  0
CLASS
  1
ACDBDICTIONARYWDFLT
  2
AcDbDictionaryWithDefault
  3
AutoCAD 2000
 90
0
 91
1
280
0
281
0
  0
CLASS
  1
ACDBPLACEHOLDER
  2
AcDbPlaceHolder
  3
AutoCAD 2000
 90
0
 91
1
280
0
281
0
  0
CLASS
  1
LAYOUT
  2
AcDbLayout
  3
AutoCAD 2000
 90
0
 91
0
280
0
281
0
  0
ENDSEC
  0
SECTION
  2
TABLES
  0
TABLE
  2
VPORT
  5
8
100
AcDbSymbolTable
 70
2
  0
VPORT
  5
1F4
100
AcDbSymbolTableRecord
100
AcDbViewportTableRecord
  2
*ACTIVE
 70
0
 10
0.0
 20
0.0
 11
1.0
 21
1.0
 12
208.564143112
 22
294.9692881155
 13
0.0
 23
0.0
 14
1.0
 24
1.0
 15
0.0
 25
0.0
 16
0.0
 26
0.0
 36
1.0
 17
0.0
 27
0.0
 37
0.0
 40
589.938576231
 41
0.7070707071
 42
50.0
 43
0.0
 44
0.0
 50
0.0
 51
0.0
 71
0
 72
100
 73
1
 74
1
 75
0
 76
0
 77
0
 78
0
  0
ENDTAB
  0
TABLE
  2
LTYPE
  5
5
100
AcDbSymbolTable
 70
6
  0
LTYPE
  5
14
100
AcDbSymbolTableRecord
100
AcDbLinetypeTableRecord
  2
BYBLOCK
 70
0
  3

 72
65
 73
0
 40
0.0
  0
LTYPE
  5
15
100
AcDbSymbolTableRecord
100
AcDbLinetypeTableRecord
  2
BYLAYER
 70
0
  3

 72
65
 73
0
 40
0.0
  0
LTYPE
  5
16
100
AcDbSymbolTableRecord
100
AcDbLinetypeTableRecord
  2
CONTINUOUS
 70
64
  3
Solid line
 72
65
 73
0
 40
0.0
  0
LTYPE
  5
1F5
100
AcDbSymbolTableRecord
100
AcDbLinetypeTableRecord
  2
CENTER
 70
64
  3
____ _ ____ _ ____ _ ____ _ ____ _ ____ _ ____
 72
65
 73
4
 40
0.6
 49
0.375
 74
0
 49
-0.075
 74
0
 49
0.075
 74
0
 49
-0.075
 74
0
  0
LTYPE
  5
1F6
100
AcDbSymbolTableRecord
100
AcDbLinetypeTableRecord
  2
HIDDEN
 70
64
  3
- - - - - - - - - - - - - - - - - - - -
 72
65
 73
2
 40
0.2
 49
0.1
 74
0
 49
-0.1
 74
0
  0
LTYPE
  5
1F7
100
AcDbSymbolTableRecord
100
AcDbLinetypeTableRecord
  2
PHANTOM
 70
64
  3
_____ _ _ _____ _ _ _____ _ _ _____
 72
65
 73
6
 40
0.8
 49
0.45
 74
0
 49
-0.05
 74
0
 49
0.1
 74
0
 49
-0.05
 74
0
 49
0.1
 74
0
 49
-0.05
 74
0
  0
LTYPE
  5
1F8
100
AcDbSymbolTableRecord
100
AcDbLinetypeTableRecord
  2
DOT
 70
64
  3
. . . . . . . . . . . . . . . . . . . .
 72
65
 73
2
 40
0.2
 49
0.1
 74
0
 49
-0.1
 74
0
  0
LTYPE
  5
1F9
100
AcDbSymbolTableRecord
100
AcDbLinetypeTableRecord
  2
DASHED
 70
64
  3
- - - - - - - - - - - - - - - - - - - -
 72
65
 73
2
 40
0.2
 49
0.1
 74
0
 49
-0.1
 74
0
  0
ENDTAB
  0
TABLE
  2
LAYER
  5
2
100
AcDbSymbolTable
 70
36
  0
LAYER
  5
10
100
AcDbSymbolTableRecord
100
AcDbLayerTableRecord
  2
0
 70
0
 62
7
  6
CONTINUOUS
370
-3
390
F
  0
LAYER
  5
1FA
100
AcDbSymbolTableRecord
100
AcDbLayerTableRecord
  2
DEFAULT_1
 70
0
 62
7
  6
CENTER
370
-3
390
F
  0
LAYER
  5
1FB
100
AcDbSymbolTableRecord
100
AcDbLayerTableRecord
  2
DEFAULT_2
 70
0
 62
8
  6
HIDDEN
370
-3
390
F
  0
LAYER
  5
1FC
100
AcDbSymbolTableRecord
100
AcDbLayerTableRecord
  2
DEFAULT_3
 70
0
 62
7
  6
PHANTOM
370
-3
390
F
  0
LAYER
  5
1FD
100
AcDbSymbolTableRecord
100
AcDbLayerTableRecord
  2
00_COMPONENTS
 70
0
 62
7
  6
CONTINUOUS
370
-3
390
F
  0
LAYER
  5
1FE
100
AcDbSymbolTableRecord
100
AcDbLayerTableRecord
  2
01_1_DEFAULT_DATUMS
 70
0
 62
7
  6
CONTINUOUS
370
-3
390
F
  0
LAYER
  5
1FF
100
AcDbSymbolTableRecord
100
AcDbLayerTableRecord
  2
01_PLANES
 70
0
 62
7
  6
CONTINUOUS
370
-3
390
F
  0
LAYER
  5
200
100
AcDbSymbolTableRecord
100
AcDbLayerTableRecord
  2
02_COORD_SYS
 70
0
 62
7
  6
CONTINUOUS
370
-3
390
F
  0
LAYER
  5
201
100
AcDbSymbolTableRecord
100
AcDbLayerTableRecord
  2
03_AXES
 70
0
 62
7
  6
CONTINUOUS
370
-3
390
F
  0
LAYER
  5
202
100
AcDbSymbolTableRecord
100
AcDbLayerTableRecord
  2
04_POINTS
 70
0
 62
7
  6
CONTINUOUS
370
-3
390
F
  0
LAYER
  5
203
100
AcDbSymbolTableRecord
100
AcDbLayerTableRecord
  2
05_CURVES
 70
0
 62
7
  6
CONTINUOUS
370
-3
390
F
  0
LAYER
  5
204
100
AcDbSymbolTableRecord
100
AcDbLayerTableRecord
  2
06_SURFS
 70
0
 62
7
  6
CONTINUOUS
370
-3
390
F
  0
LAYER
  5
205
100
AcDbSymbolTableRecord
100
AcDbLayerTableRecord
  2
07_COSMETICS
 70
0
 62
7
  6
CONTINUOUS
370
-3
390
F
  0
LAYER
  5
206
100
AcDbSymbolTableRecord
100
AcDbLayerTableRecord
  2
10_NOTES
 70
0
 62
7
  6
CONTINUOUS
370
-3
390
F
  0
LAYER
  5
207
100
AcDbSymbolTableRecord
100
AcDbLayerTableRecord
  2
11_NOTES_PUB
 70
0
 62
7
  6
CONTINUOUS
370
-3
390
F
  0
LAYER
  5
208
100
AcDbSymbolTableRecord
100
AcDbLayerTableRecord
  2
13_REF_GTOL
 70
0
 62
7
  6
CONTINUOUS
370
-3
390
F
  0
LAYER
  5
209
100
AcDbSymbolTableRecord
100
AcDbLayerTableRecord
  2
16_MISC
 70
0
 62
7
  6
CONTINUOUS
370
-3
390
F
  0
LAYER
  5
20A
100
AcDbSymbolTableRecord
100
AcDbLayerTableRecord
  2
17_NO_PRINT
 70
0
 62
7
  6
CONTINUOUS
370
-3
390
F
  0
LAYER
  5
20B
100
AcDbSymbolTableRecord
100
AcDbLayerTableRecord
  2
18_DATUM_CAMS_JOINTS
 70
0
 62
7
  6
CONTINUOUS
370
-3
390
F
  0
LAYER
  5
20C
100
AcDbSymbolTableRecord
100
AcDbLayerTableRecord
  2
19_DATUM_FUNCTIONAL
 70
0
 62
7
  6
CONTINUOUS
370
-3
390
F
  0
LAYER
  5
20D
100
AcDbSymbolTableRecord
100
AcDbLayerTableRecord
  2
20_DATUM_KINEMATIC_SCHEME
 70
0
 62
7
  6
CONTINUOUS
370
-3
390
F
  0
ENDTAB
  0
TABLE
  2
STYLE
  5
3
100
AcDbSymbolTable
 70
1
  0
STYLE
  5
11
100
AcDbSymbolTableRecord
100
AcDbTextStyleTableRecord
  2
STANDARD
 70
0
 40
0.0
 41
0.8
 50
0.0
 71
0
 42
0.2
  3
txt
  4

  0
STYLE
  5
20E
100
AcDbSymbolTableRecord
100
AcDbTextStyleTableRecord
  2
TEXTSTYLE_1
 70
0
 40
0.0
 41
0.8
 50
0.0
 71
0
 42
0.2
  3
gdt
  4

  0
ENDTAB
  0
TABLE
  2
VIEW
  5
6
100
AcDbSymbolTable
 70
0
  0
ENDTAB
  0
TABLE
  2
UCS
  5
7
100
AcDbSymbolTable
 70
0
  0
ENDTAB
  0
TABLE
  2
APPID
  5
9
100
AcDbSymbolTable
 70
1
  0
APPID
  5
20F
100
AcDbSymbolTableRecord
100
AcDbRegAppTableRecord
  2
ACAD
 70
0
  0
ENDTAB
  0
TABLE
  2
BLOCK_RECORD
  5
1
100
AcDbSymbolTable
 70
0
  0
BLOCK_RECORD
  5
210
100
AcDbSymbolTableRecord
100
AcDbBlockTableRecord
  2
*Model_Space
  0
BLOCK_RECORD
  5
211
100
AcDbSymbolTableRecord
100
AcDbBlockTableRecord
  2
*Paper_Space
  0
BLOCK_RECORD
  5
212
100
AcDbSymbolTableRecord
100
AcDbBlockTableRecord
  2
_FILLED
  0
ENDTAB
  0
TABLE
  2
DIMSTYLE
  5
A
100
AcDbSymbolTable
 70
1
100
AcDbDimStyleTable
 71
0
  0
DIMSTYLE
105
213
100
AcDbSymbolTableRecord
100
AcDbDimStyleTableRecord
  2
STANDARD
 70
0
  3

  4

 40
1.0
 41
4.9658129312
 42
1.0
 43
0.38
 44
1.0
 45
0.0
 46
0.0
 47
0.01
 48
0.01
140
6.9521381037
141
0.09
142
0.0
143
25.4
144
1.0
145
0.0
146
1.0
147
0.625
 71
1
 72
0
 73
0
 74
0
 75
0
 76
0
 77
1
 78
8
 79
2
170
0
171
1
172
0
173
0
174
0
175
0
176
0
177
0
178
0
270
2
179
2
271
2
272
2
273
2
274
2
275
0
280
0
281
0
282
0
283
1
284
8
285
0
286
0
287
3
288
0
340
11
278
46
341
212
342
212
343
212
344
212
  0
ENDTAB
  0
ENDSEC
  0
SECTION
  2
BLOCKS
  0
BLOCK
  5
20
100
AcDbEntity
  8
0
100
AcDbBlockBegin
  2
*Model_Space
 70
0
 10
0.0
 20
0.0
 30
0.0
  3
*Model_Space
  1

  0
ENDBLK
  5
21
100
AcDbEntity
  8
0
100
AcDbBlockEnd
  0
BLOCK
  5
1C
100
AcDbEntity
  8
0
100
AcDbBlockBegin
  2
*Paper_Space
 70
0
 10
0.0
 20
0.0
 30
0.0
  3
*Paper_Space
  1

  0
ENDBLK
  5
1D
100
AcDbEntity
  8
0
100
AcDbBlockEnd
  0
BLOCK
  5
214
100
AcDbEntity
  8
0
100
AcDbBlockBegin
  2
_FILLED
 70
64
 10
0.0
 20
0.0
  3
_FILLED
  1

  0
SOLID
  5
215
100
AcDbEntity
  8
0
  6
BYBLOCK
 62
0
100
AcDbTrace
 10
0.0
 20
0.0
 11
-1.0
 21
0.25
 12
-1.0
 22
-0.25
 13
-1.0
 23
-0.25
  0
ENDBLK
  5
216
100
AcDbEntity
  8
0
  6
BYBLOCK
 62
0
100
AcDbBlockEnd
  0
ENDSEC
  0
SECTION
  2
ENTITIES
  0
LINE
  5
217
100
AcDbEntity
  8
0
100
AcDbLine
 62
7
  6
CONTINUOUS
 10
48.3916803769
 20
223.0725450999
 11
48.3916803769
 21
288.3927384702
  0
LINE
  5
218
100
AcDbEntity
  8
0
100
AcDbLine
 62
7
  6
CONTINUOUS
 10
63.0287298072
 20
296.8433924554
 11
63.0287298072
 21
303.212111309
  0
LINE
  5
219
100
AcDbEntity
  8
0
100
AcDbLine
 62
7
  6
CONTINUOUS
 10
65.8571451561
 20
305.1716888913
 11
65.8571451561
 21
304.8450879245
  0
LINE
  5
21A
100
AcDbEntity
  8
0
100
AcDbLine
 62
7
  6
CONTINUOUS
 10
102.1320194881
 20
192.0462477563
 11
48.3916803769
 21
223.0725450999
  0
LINE
  5
21B
100
AcDbEntity
  8
0
100
AcDbLine
 62
7
  6
CONTINUOUS
 10
69.3926937818
 20
303.1304851187
 11
69.3926937818
 21
302.8038841519
  0
LINE
  5
21C
100
AcDbEntity
  8
0
100
AcDbLine
 62
7
  6
CONTINUOUS
 10
117.5688629562
 20
191.5435257465
 11
131.7245607653
 21
184.2275534231
  0
LINE
  5
21D
100
AcDbEntity
  8
0
100
AcDbLine
 62
7
  6
CONTINUOUS
 10
117.5688629562
 20
191.5435257465
 11
109.4150006968
 21
196.2510538184
  0
LINE
  5
21E
100
AcDbEntity
  8
0
100
AcDbLine
 62
7
  6
CONTINUOUS
 10
96.9699966143
 20
271.9407064294
 11
96.9699966143
 21
277.2478362384
  0
LINE
  5
21F
100
AcDbEntity
  8
0
100
AcDbLine
 62
7
  6
CONTINUOUS
 10
102.1320194881
 20
257.3664411267
 11
102.1320194881
 21
192.0462477563
  0
LINE
  5
220
100
AcDbEntity
  8
0
100
AcDbLine
 62
7
  6
CONTINUOUS
 10
102.8386758424
 20
326.5228581388
 11
107.4702059761
 21
334.5449481788
  0
LINE
  5
221
100
AcDbEntity
  8
0
100
AcDbLine
 62
7
  6
CONTINUOUS
 10
115.2130224333
 20
339.7909865037
 11
106.3742244681
 21
324.4816543662
  0
LINE
  5
222
100
AcDbEntity
  8
0
100
AcDbLine
 62
7
  6
CONTINUOUS
 10
107.4702059761
 20
334.5449481788
 11
112.2313757378
 21
341.5124020823
  0
LINE
  5
223
100
AcDbEntity
  8
0
100
AcDbLine
 62
7
  6
CONTINUOUS
 10
112.1728939765
 20
263.1635081117
 11
112.1728939765
 21
197.8433147413
  0
LINE
  5
224
100
AcDbEntity
  8
0
100
AcDbLine
 62
7
  6
CONTINUOUS
 10
117.3343516087
 20
338.5662642401
 11
108.4955536435
 21
323.2569321026
  0
LINE
  5
225
100
AcDbEntity
  8
0
100
AcDbLine
 62
7
  6
CONTINUOUS
 10
133.0325925968
 20
235.222989985
 11
131.6339204456
 21
248.2980356552
  0
LINE
  5
226
100
AcDbEntity
  8
0
100
AcDbLine
 62
7
  6
CONTINUOUS
 10
122.0873398032
 20
342.9433917077
 11
122.0873398032
 21
327.0215945737
  0
LINE
  5
227
100
AcDbEntity
  8
0
100
AcDbLine
 62
7
  6
CONTINUOUS
 10
131.2078048388
 20
337.6778078877
 11
131.2078048388
 21
321.7560107537
  0
LINE
  5
228
100
AcDbEntity
  8
0
100
AcDbLine
 62
7
  6
CONTINUOUS
 10
133.0325925968
 20
258.7137645258
 11
133.0325925968
 21
247.4905301804
  0
LINE
  5
229
100
AcDbEntity
  8
0
100
AcDbLine
 62
7
  6
CONTINUOUS
 10
133.0325925968
 20
235.222989985
 11
133.0325925968
 21
194.944925748
  0
LINE
  5
22A
100
AcDbEntity
  8
0
100
AcDbLine
 62
7
  6
CONTINUOUS
 10
158.256135793
 20
368.0846510747
 11
112.2313757378
 21
341.5124020823
  0
LINE
  5
22B
100
AcDbEntity
  8
0
100
AcDbLine
 62
7
  6
CONTINUOUS
 10
161.2377824885
 20
366.3632354961
 11
115.2130224333
 21
339.7909865037
  0
LINE
  5
22C
100
AcDbEntity
  8
0
100
AcDbLine
 62
7
  6
CONTINUOUS
 10
122.0873398032
 20
342.9433917077
 11
161.1876811843
 21
365.5178495782
  0
LINE
  5
22D
100
AcDbEntity
  8
0
100
AcDbLine
 62
7
  6
CONTINUOUS
 10
163.359111664
 20
365.1385132325
 11
162.6019250731
 21
364.7013539599
  0
LINE
  5
22E
100
AcDbEntity
  8
0
100
AcDbLine
 62
7
  6
CONTINUOUS
 10
122.0873398032
 20
341.3103868735
 11
117.3343516087
 21
338.5662642401
  0
LINE
  5
22F
100
AcDbEntity
  8
0
100
AcDbLine
 62
7
  6
CONTINUOUS
 10
125.1734998853
 20
342.9487748794
 11
161.178382822
 21
363.7360796516
  0
LINE
  5
230
100
AcDbEntity
  8
0
100
AcDbLine
 62
7
  6
CONTINUOUS
 10
102.8386758424
 20
326.5228581388
 11
65.8571451561
 21
305.1716888913
  0
LINE
  5
231
100
AcDbEntity
  8
0
100
AcDbLine
 62
7
  6
CONTINUOUS
 10
63.0287298072
 20
303.212111309
 11
65.8571451561
 21
304.8450879245
  0
LINE
  5
232
100
AcDbEntity
  8
0
100
AcDbLine
 62
7
  6
CONTINUOUS
 10
166.4816478958
 20
362.4614456173
 11
167.5988719586
 21
363.1064713804
  0
LINE
  5
233
100
AcDbEntity
  8
0
100
AcDbLine
 62
7
  6
CONTINUOUS
 10
166.7110492136
 20
360.5418654839
 11
130.7061662768
 21
339.7545607117
  0
LINE
  5
234
100
AcDbEntity
  8
0
100
AcDbLine
 62
7
  6
CONTINUOUS
 10
106.3742244681
 20
324.4816543662
 11
69.3926937818
 21
303.1304851187
  0
LINE
  5
235
100
AcDbEntity
  8
0
100
AcDbLine
 62
7
  6
CONTINUOUS
 10
207.9850164361
 20
383.1462517338
 11
203.8838141802
 21
380.7784356414
  0
LINE
  5
236
100
AcDbEntity
  8
0
100
AcDbLine
 62
7
  6
CONTINUOUS
 10
173.4039711707
 20
372.6115980354
 11
158.256135793
 21
368.0846510747
  0
LINE
  5
237
100
AcDbEntity
  8
0
100
AcDbLine
 62
7
  6
CONTINUOUS
 10
48.3916803769
 20
288.3927384702
 11
102.1320194881
 21
257.3664411267
  0
LINE
  5
238
100
AcDbEntity
  8
0
100
AcDbLine
 62
7
  6
CONTINUOUS
 10
133.0325925968
 20
247.4905301804
 11
131.6339204456
 21
248.2980356552
  0
LINE
  5
239
100
AcDbEntity
  8
0
100
AcDbLine
 62
7
  6
CONTINUOUS
 10
58.4325548653
 20
294.1898054552
 11
112.1728939765
 21
263.1635081117
  0
LINE
  5
23A
100
AcDbEntity
  8
0
100
AcDbLine
 62
7
  6
CONTINUOUS
 10
100.6911089318
 20
277.38570641
 11
89.3773533294
 21
288.000070568
  0
LINE
  5
23B
100
AcDbEntity
  8
0
100
AcDbLine
 62
7
  6
CONTINUOUS
 10
92.2057686783
 20
289.6330471835
 11
103.5195242806
 21
279.0186830255
  0
LINE
  5
23C
100
AcDbEntity
  8
0
100
AcDbLine
 62
7
  6
CONTINUOUS
 10
103.5673067982
 20
279.3176973671
 11
92.2535511958
 21
289.9320615251
  0
LINE
  5
23D
100
AcDbEntity
  8
0
100
AcDbLine
 62
7
  6
CONTINUOUS
 10
95.0819665447
 20
291.5650381406
 11
106.395722147
 21
280.9506739826
  0
LINE
  5
23E
100
AcDbEntity
  8
0
100
AcDbLine
 62
7
  6
CONTINUOUS
 10
135.8610079456
 20
260.6733421081
 11
135.8610079456
 21
249.1235067959
  0
LINE
  5
23F
100
AcDbEntity
  8
0
100
AcDbLine
 62
7
  6
CONTINUOUS
 10
131.7245607653
 20
184.2275534231
 11
133.0325925968
 21
194.944925748
  0
LINE
  5
240
100
AcDbEntity
  8
0
100
AcDbLine
 62
7
  6
CONTINUOUS
 10
171.4253702827
 20
360.8972915213
 11
131.2078048388
 21
337.6778078877
  0
LINE
  5
241
100
AcDbEntity
  8
0
100
AcDbLine
 62
7
  6
CONTINUOUS
 10
74.3424383061
 20
303.5387394706
 11
108.4955536435
 21
323.2569321026
  0
LINE
  5
242
100
AcDbEntity
  8
0
100
AcDbLine
 62
7
  6
CONTINUOUS
 10
48.3916803769
 20
288.3927384702
 11
63.0287298072
 21
296.8433924554
  0
LINE
  5
243
100
AcDbEntity
  8
0
100
AcDbLine
 62
7
  6
CONTINUOUS
 10
211.5205650618
 20
381.1050479612
 11
207.419362806
 21
378.7372318688
  0
LINE
  5
244
100
AcDbEntity
  8
0
100
AcDbLine
 62
7
  6
CONTINUOUS
 10
77.878048028
 20
301.4975004249
 11
122.0873398032
 21
327.0215945737
  0
LINE
  5
245
100
AcDbEntity
  8
0
100
AcDbLine
 62
7
  6
CONTINUOUS
 10
171.4253702827
 20
355.5067497189
 11
209.5406919814
 21
377.5125096052
  0
LINE
  5
246
100
AcDbEntity
  8
0
100
AcDbLine
 62
7
  6
CONTINUOUS
 10
236.2320360058
 20
380.4153766297
 11
237.6835660129
 21
381.032749927
  0
LINE
  5
247
100
AcDbEntity
  8
0
100
AcDbLine
 62
7
  6
CONTINUOUS
 10
96.9699966143
 20
277.2478362384
 11
63.0287298072
 21
296.8433924554
  0
LINE
  5
248
100
AcDbEntity
  8
0
100
AcDbLine
 62
7
  6
CONTINUOUS
 10
100.6911089318
 20
277.38570641
 11
133.0325925968
 21
258.7137645258
  0
LINE
  5
249
100
AcDbEntity
  8
0
100
AcDbLine
 62
7
  6
CONTINUOUS
 10
103.5195242806
 20
279.0186830255
 11
135.8610079456
 21
260.3467411413
  0
LINE
  5
24A
100
AcDbEntity
  8
0
100
AcDbLine
 62
7
  6
CONTINUOUS
 10
103.5673067982
 20
279.3176973671
 11
135.8610079456
 21
260.6733421081
  0
LINE
  5
24B
100
AcDbEntity
  8
0
100
AcDbLine
 62
7
  6
CONTINUOUS
 10
63.0287298072
 20
303.212111309
 11
89.3773533294
 21
288.000070568
  0
LINE
  5
24C
100
AcDbEntity
  8
0
100
AcDbLine
 62
7
  6
CONTINUOUS
 10
65.8571451561
 20
304.8450879245
 11
92.2057686783
 21
289.6330471835
  0
LINE
  5
24D
100
AcDbEntity
  8
0
100
AcDbLine
 62
7
  6
CONTINUOUS
 10
65.8571451561
 20
305.1716888913
 11
92.2535511958
 21
289.9320615251
  0
LINE
  5
24E
100
AcDbEntity
  8
0
100
AcDbLine
 62
7
  6
CONTINUOUS
 10
171.4253702827
 20
344.9754943873
 11
131.2078048388
 21
321.7560107537
  0
LINE
  5
24F
100
AcDbEntity
  8
0
100
AcDbLine
 62
7
  6
CONTINUOUS
 10
233.9359156757
 20
372.0012951124
 11
230.6125276408
 21
370.0825475892
  0
LINE
  5
250
100
AcDbEntity
  8
0
100
AcDbLine
 62
7
  6
CONTINUOUS
 10
92.2535511958
 20
289.9320615251
 11
95.0819665447
 21
291.5650381406
  0
LINE
  5
251
100
AcDbEntity
  8
0
100
AcDbLine
 62
7
  6
CONTINUOUS
 10
89.3773533294
 20
288.000070568
 11
92.2057686783
 21
289.6330471835
  0
LINE
  5
252
100
AcDbEntity
  8
0
100
AcDbLine
 62
7
  6
CONTINUOUS
 10
239.8049364039
 20
374.8450953822
 11
243.3031332573
 21
376.3329690846
  0
LINE
  5
253
100
AcDbEntity
  8
0
100
AcDbLine
 62
7
  6
CONTINUOUS
 10
74.3424383061
 20
303.5387394706
 11
95.0819665447
 21
291.5650381406
  0
LINE
  5
254
100
AcDbEntity
  8
0
100
AcDbLine
 62
7
  6
CONTINUOUS
 10
161.178382822
 20
357.3475981205
 11
161.178382822
 21
363.7360796516
  0
LINE
  5
255
100
AcDbEntity
  8
0
100
AcDbLine
 62
7
  6
CONTINUOUS
 10
171.4253702827
 20
360.8972915213
 11
171.4253702827
 21
344.9754943873
  0
LINE
  5
256
100
AcDbEntity
  8
0
100
AcDbLine
 62
7
  6
CONTINUOUS
 10
96.9699966143
 20
277.2478362384
 11
92.3738216724
 21
274.5942492382
  0
LINE
  5
257
100
AcDbEntity
  8
0
100
AcDbLine
 62
7
  6
CONTINUOUS
 10
318.6469406522
 20
403.680699974
 11
324.6573232685
 21
407.1507752819
  0
LINE
  5
258
100
AcDbEntity
  8
0
100
AcDbLine
 62
7
  6
CONTINUOUS
 10
103.5673067982
 20
279.3176973671
 11
106.395722147
 21
280.9506739826
  0
LINE
  5
259
100
AcDbEntity
  8
0
100
AcDbLine
 62
7
  6
CONTINUOUS
 10
100.6911089318
 20
277.38570641
 11
103.5195242806
 21
279.0186830255
  0
LINE
  5
25A
100
AcDbEntity
  8
0
100
AcDbLine
 62
7
  6
CONTINUOUS
 10
257.7988826228
 20
367.9640336169
 11
254.3006857694
 21
366.4761599145
  0
LINE
  5
25B
100
AcDbEntity
  8
0
100
AcDbLine
 62
7
  6
CONTINUOUS
 10
266.3215098814
 20
364.4989993689
 11
264.8699798742
 21
363.8816260717
  0
LINE
  5
25C
100
AcDbEntity
  8
0
100
AcDbLine
 62
7
  6
CONTINUOUS
 10
182.7081108715
 20
276.1705328319
 11
183.9440688762
 21
264.6165690637
  0
LINE
  5
25D
100
AcDbEntity
  8
0
100
AcDbLine
 62
7
  6
CONTINUOUS
 10
183.9440688762
 20
264.6170681495
 11
183.9440688762
 21
224.3385048267
  0
LINE
  5
25E
100
AcDbEntity
  8
0
100
AcDbLine
 62
7
  6
CONTINUOUS
 10
252.5329261763
 20
357.8353266532
 11
255.5027622926
 21
359.5499520995
  0
LINE
  5
25F
100
AcDbEntity
  8
0
100
AcDbLine
 62
7
  6
CONTINUOUS
 10
321.1671350988
 20
395.7319189961
 11
323.9171703086
 21
397.3196430873
  0
LINE
  5
260
100
AcDbEntity
  8
0
100
AcDbLine
 62
7
  6
CONTINUOUS
 10
266.3215098814
 20
363.6729190668
 11
327.1322573556
 21
398.7818109188
  0
LINE
  5
261
100
AcDbEntity
  8
0
100
AcDbLine
 62
7
  6
CONTINUOUS
 10
259.2504715092
 20
353.5487970311
 11
262.5738595441
 21
355.4675445543
  0
LINE
  5
262
100
AcDbEntity
  8
0
100
AcDbLine
 62
7
  6
CONTINUOUS
 10
102.8386758424
 20
326.5228581388
 11
108.4955536435
 21
323.2569321026
  0
LINE
  5
263
100
AcDbEntity
  8
0
100
AcDbLine
 62
7
  6
CONTINUOUS
 10
183.9440688762
 20
224.3385048267
 11
182.6360370447
 21
213.6211325019
  0
LINE
  5
264
100
AcDbEntity
  8
0
100
AcDbLine
 62
7
  6
CONTINUOUS
 10
266.0560446907
 20
349.6196864111
 11
266.3215098814
 21
349.7915235724
  0
LINE
  5
265
100
AcDbEntity
  8
0
100
AcDbLine
 62
7
  6
CONTINUOUS
 10
102.1320194881
 20
257.3664411267
 11
112.1728939765
 21
263.1635081117
  0
LINE
  5
266
100
AcDbEntity
  8
0
100
AcDbLine
 62
7
  6
CONTINUOUS
 10
131.2078048388
 20
321.7560107537
 11
122.0873398032
 21
327.0215945737
  0
LINE
  5
267
100
AcDbEntity
  8
0
100
AcDbLine
 62
7
  6
CONTINUOUS
 10
277.9888792256
 20
342.7304170363
 11
135.8610079456
 21
260.6733421081
  0
LINE
  5
268
100
AcDbEntity
  8
0
100
AcDbLine
 62
7
  6
CONTINUOUS
 10
133.0325925968
 20
258.7137645258
 11
135.8610079456
 21
260.3467411413
  0
LINE
  5
269
100
AcDbEntity
  8
0
100
AcDbLine
 62
7
  6
CONTINUOUS
 10
267.5691249941
 20
327.6512518386
 11
358.9521949872
 21
380.4109769654
  0
LINE
  5
26A
100
AcDbEntity
  8
0
100
AcDbLine
 62
7
  6
CONTINUOUS
 10
112.2313757378
 20
341.5124020823
 11
117.3343516087
 21
338.5662642401
  0
LINE
  5
26B
100
AcDbEntity
  8
0
100
AcDbLine
 62
7
  6
CONTINUOUS
 10
131.2078048388
 20
337.6778078877
 11
122.0873398032
 21
342.9433917077
  0
LINE
  5
26C
100
AcDbEntity
  8
0
100
AcDbLine
 62
7
  6
CONTINUOUS
 10
130.7061662768
 20
339.7545607117
 11
125.1734998853
 21
342.9487748794
  0
LINE
  5
26D
100
AcDbEntity
  8
0
100
AcDbLine
 62
7
  6
CONTINUOUS
 10
238.1150888899
 20
369.6849125824
 11
239.8049364039
 21
374.8450953822
  0
LINE
  5
26E
100
AcDbEntity
  8
0
100
AcDbLine
 62
7
  6
CONTINUOUS
 10
232.0271298067
 20
304.6447117224
 11
277.9888792256
 21
334.3960193302
  0
LINE
  5
26F
100
AcDbEntity
  8
0
100
AcDbLine
 62
7
  6
CONTINUOUS
 10
133.0325925968
 20
247.4905301804
 11
232.0271298067
 21
304.6447117224
  0
LINE
  5
270
100
AcDbEntity
  8
0
100
AcDbLine
 62
7
  6
CONTINUOUS
 10
360.4172985087
 20
374.2260480285
 11
362.1673057946
 21
375.236444094
  0
LINE
  5
271
100
AcDbEntity
  8
0
100
AcDbLine
 62
7
  6
CONTINUOUS
 10
238.3449979348
 20
303.0618692751
 11
231.3181906913
 21
299.004964438
  0
LINE
  5
272
100
AcDbEntity
  8
0
100
AcDbLine
 62
7
  6
CONTINUOUS
 10
367.4375116874
 20
375.5120879121
 11
373.4478943037
 21
378.98216322
  0
LINE
  5
273
100
AcDbEntity
  8
0
100
AcDbLine
 62
7
  6
CONTINUOUS
 10
238.604774639
 20
300.6334286506
 11
359.0293306507
 21
370.1601634626
  0
LINE
  5
274
100
AcDbEntity
  8
0
100
AcDbLine
 62
7
  6
CONTINUOUS
 10
364.9173172439
 20
370.4733109836
 11
363.167309958
 21
369.4629149181
  0
LINE
  5
275
100
AcDbEntity
  8
0
100
AcDbLine
 62
7
  6
CONTINUOUS
 10
183.9440688762
 20
264.6170681495
 11
232.0271298067
 21
292.3776706128
  0
LINE
  5
276
100
AcDbEntity
  8
0
100
AcDbLine
 62
7
  6
CONTINUOUS
 10
133.0325925968
 20
235.222989985
 11
183.9440688762
 21
264.6165690637
  0
LINE
  5
277
100
AcDbEntity
  8
0
100
AcDbLine
 62
7
  6
CONTINUOUS
 10
230.791222085
 20
303.9311643259
 11
232.0271298067
 21
292.3776706128
  0
LINE
  5
278
100
AcDbEntity
  8
0
100
AcDbLine
 62
7
  6
CONTINUOUS
 10
238.3449979348
 20
303.0618692751
 11
239.4419549643
 21
292.8073123027
  0
LINE
  5
279
100
AcDbEntity
  8
0
100
AcDbLine
 62
7
  6
CONTINUOUS
 10
239.4419549643
 20
292.8073123027
 11
239.5288884245
 21
281.2544371999
  0
LINE
  5
27A
100
AcDbEntity
  8
0
100
AcDbLine
 62
7
  6
CONTINUOUS
 10
232.0271298067
 20
292.3776706128
 11
232.0271298067
 21
252.09910729
  0
LINE
  5
27B
100
AcDbEntity
  8
0
100
AcDbLine
 62
7
  6
CONTINUOUS
 10
231.894950989
 20
250.9344485395
 11
231.895611883
 21
251.0215138237
  0
LINE
  5
27C
100
AcDbEntity
  8
0
100
AcDbLine
 62
7
  6
CONTINUOUS
 10
239.5288884245
 20
264.2511891238
 11
239.4609620471
 21
255.3026609859
  0
LINE
  5
27D
100
AcDbEntity
  8
0
100
AcDbLine
 62
7
  6
CONTINUOUS
 10
236.1271864199
 20
375.7313178291
 11
236.2320360058
 21
380.4153766297
  0
LINE
  5
27E
100
AcDbEntity
  8
0
100
AcDbLine
 62
7
  6
CONTINUOUS
 10
238.0371768108
 20
366.2042621209
 11
238.1150888899
 21
369.6849125824
  0
LINE
  5
27F
100
AcDbEntity
  8
0
100
AcDbLine
 62
7
  6
CONTINUOUS
 10
232.0271298067
 20
252.09910729
 11
230.7190979753
 21
241.3817349652
  0
LINE
  5
280
100
AcDbEntity
  8
0
100
AcDbLine
 62
7
  6
CONTINUOUS
 10
230.7931896849
 20
241.9071559116
 11
231.894950989
 21
250.9344485395
  0
LINE
  5
281
100
AcDbEntity
  8
0
100
AcDbLine
 62
7
  6
CONTINUOUS
 10
254.3006857694
 20
366.4761599145
 11
252.6108382554
 21
361.3159771147
  0
LINE
  5
282
100
AcDbEntity
  8
0
100
AcDbLine
 62
7
  6
CONTINUOUS
 10
373.765708235
 20
370.6740223936
 11
373.5514710202
 21
370.5503332183
  0
LINE
  5
283
100
AcDbEntity
  8
0
100
AcDbLine
 62
7
  6
CONTINUOUS
 10
239.4419549644
 20
292.8073123028
 11
232.0271298067
 21
288.5263865557
  0
LINE
  5
284
100
AcDbEntity
  8
0
100
AcDbLine
 62
7
  6
CONTINUOUS
 10
366.5568170423
 20
365.8142654855
 11
239.4448200779
 21
292.4265578862
  0
LINE
  5
285
100
AcDbEntity
  8
0
100
AcDbLine
 62
7
  6
CONTINUOUS
 10
239.5288884245
 20
281.2544372001
 11
367.7268141111
 21
355.2691022971
  0
LINE
  5
286
100
AcDbEntity
  8
0
100
AcDbLine
 62
7
  6
CONTINUOUS
 10
234.2245730279
 20
306.0671294949
 11
238.3449979348
 21
303.0618692751
  0
LINE
  5
287
100
AcDbEntity
  8
0
100
AcDbLine
 62
7
  6
CONTINUOUS
 10
252.6108382554
 20
361.3159771147
 11
252.5329261763
 21
357.8353266532
  0
LINE
  5
288
100
AcDbEntity
  8
0
100
AcDbLine
 62
7
  6
CONTINUOUS
 10
239.4609620471
 20
255.3026609859
 11
238.359200743
 21
246.275368358
  0
LINE
  5
289
100
AcDbEntity
  8
0
100
AcDbLine
 62
7
  6
CONTINUOUS
 10
232.0271298068
 20
268.347505391
 11
373.8014491663
 21
350.2004582432
  0
LINE
  5
28A
100
AcDbEntity
  8
0
100
AcDbLine
 62
7
  6
CONTINUOUS
 10
102.1320194881
 20
192.0462477563
 11
112.1728939765
 21
197.8433147413
  0
LINE
  5
28B
100
AcDbEntity
  8
0
100
AcDbLine
 62
7
  6
CONTINUOUS
 10
367.7268141111
 20
338.2658542208
 11
239.5288884245
 21
264.2511891238
  0
LINE
  5
28C
100
AcDbEntity
  8
0
100
AcDbLine
 62
7
  6
CONTINUOUS
 10
161.178382822
 20
363.7360796516
 11
166.7110492136
 21
360.5418654839
  0
LINE
  5
28D
100
AcDbEntity
  8
0
100
AcDbLine
 62
7
  6
CONTINUOUS
 10
161.1876811843
 20
365.5178495782
 11
166.4816478958
 21
362.4614456173
  0
LINE
  5
28E
100
AcDbEntity
  8
0
100
AcDbLine
 62
7
  6
CONTINUOUS
 10
158.256135793
 20
368.0846510747
 11
163.359111664
 21
365.1385132325
  0
LINE
  5
28F
100
AcDbEntity
  8
0
100
AcDbLine
 62
7
  6
CONTINUOUS
 10
167.5988719586
 20
363.1064713804
 11
171.4253702827
 21
360.8972915213
  0
LINE
  5
290
100
AcDbEntity
  8
0
100
AcDbLine
 62
7
  6
CONTINUOUS
 10
257.6940330369
 20
363.2799748162
 11
257.7988826228
 21
367.9640336169
  0
LINE
  5
291
100
AcDbEntity
  8
0
100
AcDbLine
 62
7
  6
CONTINUOUS
 10
264.8699798742
 20
363.8816260717
 11
264.7651302884
 21
359.197567271
  0
LINE
  5
292
100
AcDbEntity
  8
0
100
AcDbLine
 62
7
  6
CONTINUOUS
 10
133.0325925968
 20
194.944925748
 11
232.0271298067
 21
252.09910729
  0
LINE
  5
293
100
AcDbEntity
  8
0
100
AcDbLine
 62
7
  6
CONTINUOUS
 10
239.4639401183
 20
255.6949880099
 11
366.5568170423
 21
329.0716567147
  0
LINE
  5
294
100
AcDbEntity
  8
0
100
AcDbLine
 62
7
  6
CONTINUOUS
 10
358.9624123459
 20
324.6018286486
 11
239.4632903637
 21
255.6093902333
  0
LINE
  5
295
100
AcDbEntity
  8
0
100
AcDbLine
 62
7
  6
CONTINUOUS
 10
239.4609620472
 20
255.3026609859
 11
231.894950989
 21
250.9344485395
  0
LINE
  5
296
100
AcDbEntity
  8
0
100
AcDbLine
 62
7
  6
CONTINUOUS
 10
364.9173410044
 20
326.3056585382
 11
362.1673057946
 21
324.717934447
  0
LINE
  5
297
100
AcDbEntity
  8
0
100
AcDbLine
 62
7
  6
CONTINUOUS
 10
274.2797662861
 20
312.5384034052
 11
266.7522798946
 21
316.8843013823
  0
LINE
  5
298
100
AcDbEntity
  8
0
100
AcDbLine
 62
7
  6
CONTINUOUS
 10
266.6756125679
 20
327.0728760505
 11
266.7522798946
 21
316.8843013823
  0
LINE
  5
299
100
AcDbEntity
  8
0
100
AcDbLine
 62
7
  6
CONTINUOUS
 10
275.4497633549
 20
301.9932402166
 11
275.5140157954
 21
293.4545208539
  0
LINE
  5
29A
100
AcDbEntity
  8
0
100
AcDbLine
 62
7
  6
CONTINUOUS
 10
266.3215098814
 20
364.4989993689
 11
266.3215098814
 21
349.7915235723
  0
LINE
  5
29B
100
AcDbEntity
  8
0
100
AcDbLine
 62
7
  6
CONTINUOUS
 10
277.9888792256
 20
334.3960193302
 11
277.9888792256
 21
342.7304170363
  0
LINE
  5
29C
100
AcDbEntity
  8
0
100
AcDbLine
 62
7
  6
CONTINUOUS
 10
266.6860113443
 20
271.4115643449
 11
266.6853615898
 21
271.3259665682
  0
LINE
  5
29D
100
AcDbEntity
  8
0
100
AcDbLine
 62
7
  6
CONTINUOUS
 10
275.5140157954
 20
293.4545208539
 11
275.4497633549
 21
284.9899921405
  0
LINE
  5
29E
100
AcDbEntity
  8
0
100
AcDbLine
 62
7
  6
CONTINUOUS
 10
238.3592007431
 20
246.275368358
 11
230.7931896849
 21
241.9071559116
  0
LINE
  5
29F
100
AcDbEntity
  8
0
100
AcDbLine
 62
7
  6
CONTINUOUS
 10
131.7245607653
 20
184.2275534231
 11
230.7190979753
 21
241.3817349652
  0
LINE
  5
2A0
100
AcDbEntity
  8
0
100
AcDbLine
 62
7
  6
CONTINUOUS
 10
367.4375116874
 20
318.356918713
 11
373.4478943037
 21
321.8269940209
  0
LINE
  5
2A1
100
AcDbEntity
  8
0
100
AcDbLine
 62
7
  6
CONTINUOUS
 10
209.5406919814
 20
377.5125096052
 11
163.359111664
 21
365.1385132325
  0
LINE
  5
2A2
100
AcDbEntity
  8
0
100
AcDbLine
 62
7
  6
CONTINUOUS
 10
203.8838141802
 20
380.7784356414
 11
209.5406919814
 21
377.5125096052
  0
LINE
  5
2A3
100
AcDbEntity
  8
0
100
AcDbLine
 62
7
  6
CONTINUOUS
 10
277.9888792256
 20
342.7304170363
 11
259.2504715092
 21
353.5487970311
  0
LINE
  5
2A4
100
AcDbEntity
  8
0
100
AcDbLine
 62
7
  6
CONTINUOUS
 10
207.9850164361
 20
383.1462517338
 11
230.6125276408
 21
370.0825475892
  0
LINE
  5
2A5
100
AcDbEntity
  8
0
100
AcDbLine
 62
7
  6
CONTINUOUS
 10
252.5329261763
 20
357.8353266532
 11
238.0371768108
 21
366.2042621209
  0
LINE
  5
2A6
100
AcDbEntity
  8
0
100
AcDbLine
 62
7
  6
CONTINUOUS
 10
233.9359156757
 20
372.0012951124
 11
238.1129583563
 21
369.5897329531
  0
LINE
  5
2A7
100
AcDbEntity
  8
0
100
AcDbLine
 62
7
  6
CONTINUOUS
 10
255.5027622926
 20
359.5499520995
 11
262.5738595441
 21
355.4675445543
  0
LINE
  5
2A8
100
AcDbEntity
  8
0
100
AcDbLine
 62
7
  6
CONTINUOUS
 10
252.6108382554
 20
361.3159771147
 11
238.1150888899
 21
369.6849125824
  0
LINE
  5
2A9
100
AcDbEntity
  8
0
100
AcDbLine
 62
7
  6
CONTINUOUS
 10
207.419362806
 20
378.7372318688
 11
161.2377824885
 21
366.3632354961
  0
LINE
  5
2AA
100
AcDbEntity
  8
0
100
AcDbLine
 62
7
  6
CONTINUOUS
 10
173.4039711707
 20
372.6115980354
 11
203.8838141802
 21
380.7784356414
  0
LINE
  5
2AB
100
AcDbEntity
  8
0
100
AcDbLine
 62
7
  6
CONTINUOUS
 10
264.7651302883
 20
359.1975672708
 11
257.6940330369
 21
363.279974816
  0
LINE
  5
2AC
100
AcDbEntity
  8
0
100
AcDbLine
 62
7
  6
CONTINUOUS
 10
239.4642347063
 20
373.804715688
 11
236.1271864199
 21
375.7313178289
  0
LINE
  5
2AD
100
AcDbEntity
  8
0
100
AcDbLine
 62
7
  6
CONTINUOUS
 10
254.3006857694
 20
366.4761599145
 11
239.8049364039
 21
374.8450953822
  0
LINE
  5
2AE
100
AcDbEntity
  8
0
100
AcDbLine
 62
7
  6
CONTINUOUS
 10
243.3031332572
 20
376.3329690845
 11
236.2320360058
 21
380.4153766297
  0
LINE
  5
2AF
100
AcDbEntity
  8
0
100
AcDbLine
 62
7
  6
CONTINUOUS
 10
257.7988826228
 20
367.9640336169
 11
264.8699798742
 21
363.8816260717
  0
LINE
  5
2B0
100
AcDbEntity
  8
0
100
AcDbLine
 62
7
  6
CONTINUOUS
 10
266.3215098814
 20
364.4989993689
 11
237.6835660129
 21
381.032749927
  0
LINE
  5
2B1
100
AcDbEntity
  8
0
100
AcDbLine
 62
7
  6
CONTINUOUS
 10
318.6469406522
 20
403.680699974
 11
318.5239672037
 21
393.8118419491
  0
LINE
  5
2B2
100
AcDbEntity
  8
0
100
AcDbLine
 62
7
  6
CONTINUOUS
 10
367.4375116874
 20
318.356918713
 11
357.7915987663
 21
323.9258631482
  0
LINE
  5
2B3
100
AcDbEntity
  8
0
100
AcDbLine
 62
7
  6
CONTINUOUS
 10
359.0293306507
 20
370.1601634626
 11
366.5568170422
 21
365.8142654855
  0
LINE
  5
2B4
100
AcDbEntity
  8
0
100
AcDbLine
 62
7
  6
CONTINUOUS
 10
362.1673057946
 20
324.717934447
 11
361.3794555578
 21
326.0825235107
  0
LINE
  5
2B5
100
AcDbEntity
  8
0
100
AcDbLine
 62
7
  6
CONTINUOUS
 10
321.3377657844
 20
395.4363796199
 11
321.1671350989
 21
395.7319189961
  0
LINE
  5
2B6
100
AcDbEntity
  8
0
100
AcDbLine
 62
7
  6
CONTINUOUS
 10
367.6725876343
 20
356.3753505373
 11
367.4375116874
 21
375.5120879121
  0
LINE
  5
2B7
100
AcDbEntity
  8
0
100
AcDbLine
 62
7
  6
CONTINUOUS
 10
358.9521949872
 20
380.4109769654
 11
359.0293306507
 21
370.1601634626
  0
LINE
  5
2B8
100
AcDbEntity
  8
0
100
AcDbLine
 62
7
  6
CONTINUOUS
 10
367.7268141111
 20
355.2691022969
 11
367.7910665518
 21
346.7303829342
  0
LINE
  5
2B9
100
AcDbEntity
  8
0
100
AcDbLine
 62
7
  6
CONTINUOUS
 10
358.9630621005
 20
324.6874264252
 11
358.9624123459
 21
324.6018286486
  0
LINE
  5
2BA
100
AcDbEntity
  8
0
100
AcDbLine
 62
7
  6
CONTINUOUS
 10
367.7910665518
 20
346.7303829343
 11
367.7268141111
 21
338.2658542209
  0
LINE
  5
2BB
100
AcDbEntity
  8
0
100
AcDbLine
 62
7
  6
CONTINUOUS
 10
367.4375116874
 20
318.356918713
 11
367.6725876343
 21
337.222219906
  0
LINE
  5
2BC
100
AcDbEntity
  8
0
100
AcDbLine
 62
7
  6
CONTINUOUS
 10
318.6469406522
 20
403.680699974
 11
327.1322573556
 21
398.7818109188
  0
LINE
  5
2BD
100
AcDbEntity
  8
0
100
AcDbLine
 62
7
  6
CONTINUOUS
 10
358.9521949872
 20
380.4109769654
 11
367.4375116874
 21
375.5120879121
  0
LINE
  5
2BE
100
AcDbEntity
  8
0
100
AcDbLine
 62
7
  6
CONTINUOUS
 10
324.6573232685
 20
407.1507752819
 11
373.4478943037
 21
378.98216322
  0
LINE
  5
2BF
100
AcDbEntity
  8
0
100
AcDbLine
 62
7
  6
CONTINUOUS
 10
323.9171465481
 20
397.3196842418
 11
324.0878009944
 21
397.0241037112
  0
LINE
  5
2C0
100
AcDbEntity
  8
0
100
AcDbLine
 62
7
  6
CONTINUOUS
 10
364.1294907678
 20
327.670247602
 11
364.9173172439
 21
326.3056996927
  0
LINE
  5
2C1
100
AcDbEntity
  8
0
100
AcDbLine
 62
7
  6
CONTINUOUS
 10
373.4478943037
 20
378.98216322
 11
373.8014491663
 21
350.2004582432
  0
LINE
  5
2C2
100
AcDbEntity
  8
0
100
AcDbLine
 62
7
  6
CONTINUOUS
 10
373.8014491663
 20
350.2004582432
 11
373.4478943037
 21
321.8269940209
  0
ARC
  5
2C3
100
AcDbEntity
  8
0
100
AcDbCircle
 62
7
  6
CONTINUOUS
 10
295.9780607761
 20
352.3065490956
 40
71.8098901725
100
AcDbArc
 50
2.3644372952
 51
3.2481607937
  0
ARC
  5
2C4
100
AcDbEntity
  8
0
100
AcDbCircle
 62
7
  6
CONTINUOUS
 10
307.4623873717
 20
340.8739238776
 40
60.3208351862
100
AcDbArc
 50
356.5293047753
 51
357.521951068
  0
SPLINE
  5
2C5
100
AcDbEntity
  8
0
100
AcDbSpline
 62
7
  6
CONTINUOUS
 70
0
 71
3
 72
14
 73
10
 74
0
 42
0.0000001
 43
0.0000001
 44
0.0000000001
 40
0.0
 40
0.0
 40
0.0
 40
0.0
 40
0.0915150328
 40
0.1893518844
 40
0.2976228433
 40
0.4181438522
 40
0.5507622461
 40
0.6938729446
 40
1.0
 40
1.0
 40
1.0
 40
1.0
 10
366.8093779717
 20
382.8229421771
 30
0.0
 10
367.0338427625
 20
382.9461699344
 30
0.0
 10
367.544555926
 20
383.123597077
 30
0.0
 10
368.387451062
 20
383.1454836477
 30
0.0
 10
369.2857318543
 20
382.9387349037
 30
0.0
 10
370.2106142588
 20
382.5165901899
 30
0.0
 10
371.1342441649
 20
381.8954956245
 30
0.0
 10
372.3499079069
 20
380.8072960351
 30
0.0
 10
373.1267581409
 20
379.8006629252
 30
0.0
 10
373.5773268447
 20
379.0721772996
 30
0.0
  0
SPLINE
  5
2C6
100
AcDbEntity
  8
0
100
AcDbSpline
 62
7
  6
CONTINUOUS
 70
0
 71
3
 72
11
 73
7
 74
0
 42
0.0000001
 43
0.0000001
 44
0.0000000001
 40
0.0
 40
0.0
 40
0.0
 40
0.0
 40
0.2654850563
 40
0.5252206696
 40
0.7720187637
 40
1.0
 40
1.0
 40
1.0
 40
1.0
 10
373.5773268447
 20
379.0721772996
 30
0.0
 10
373.8337149858
 20
378.657645456
 30
0.0
 10
374.2921398622
 20
377.8062062456
 30
0.0
 10
374.8091487702
 20
376.4825852507
 30
0.0
 10
375.1334632005
 20
375.1696047458
 30
0.0
 10
375.2154919801
 20
374.2970825368
 30
0.0
 10
375.2154919801
 20
373.878523985
 30
0.0
  0
SPLINE
  5
2C7
100
AcDbEntity
  8
0
100
AcDbSpline
 62
7
  6
CONTINUOUS
 70
0
 71
3
 72
11
 73
7
 74
0
 42
0.0000001
 43
0.0000001
 44
0.0000000001
 40
0.0
 40
0.0
 40
0.0
 40
0.0
 40
0.2898056568
 40
0.5490477747
 40
0.7822299604
 40
1.0
 40
1.0
 40
1.0
 40
1.0
 10
375.2154919801
 20
373.878523985
 30
0.0
 10
375.2154919801
 20
373.5237159895
 30
0.0
 10
375.1619189956
 20
372.8491949259
 30
0.0
 10
374.8884277952
 20
371.922521314
 30
0.0
 10
374.4287608217
 20
371.1704803956
 30
0.0
 10
373.9966066853
 20
370.8073249237
 30
0.0
 10
373.7656983105
 20
370.6740398526
 30
0.0
  0
SPLINE
  5
2C8
100
AcDbEntity
  8
0
100
AcDbSpline
 62
7
  6
CONTINUOUS
 70
0
 71
3
 72
9
 73
5
 74
0
 42
0.0000001
 43
0.0000001
 44
0.0000000001
 40
0.0
 40
0.0
 40
0.0
 40
0.0
 40
0.2569077522
 40
1.0
 40
1.0
 40
1.0
 40
1.0
 10
274.2797662861
 20
312.5384034051
 30
0.0
 10
274.4378600319
 20
311.6432997053
 30
0.0
 10
274.9994492879
 20
308.1500450954
 30
0.0
 10
275.3413878652
 20
304.6201184871
 30
0.0
 10
275.4497633549
 20
301.9932402166
 30
0.0
  0
SPLINE
  5
2C9
100
AcDbEntity
  8
0
100
AcDbSpline
 62
7
  6
CONTINUOUS
 70
0
 71
3
 72
9
 73
5
 74
0
 42
0.0000001
 43
0.0000001
 44
0.0000000001
 40
0.0
 40
0.0
 40
0.0
 40
0.0
 40
0.2592031195
 40
1.0
 40
1.0
 40
1.0
 40
1.0
 10
275.4497633549
 20
284.9899921405
 30
0.0
 10
275.4150811974
 20
284.1893891977
 30
0.0
 10
275.2206904222
 20
281.103939285
 30
0.0
 10
274.7758374074
 20
278.0316762421
 30
0.0
 10
274.2797662861
 20
275.7957946343
 30
0.0
  0
SPLINE
  5
2CA
100
AcDbEntity
  8
0
100
AcDbSpline
 62
7
  6
CONTINUOUS
 70
0
 71
3
 72
13
 73
9
 74
0
 42
0.0000001
 43
0.0000001
 44
0.0000000001
 40
0.0
 40
0.0
 40
0.0
 40
0.0
 40
0.0908571933
 40
0.1881376289
 40
0.2963011756
 40
0.41721079
 40
0.6936635604
 40
1.0
 40
1.0
 40
1.0
 40
1.0
 10
321.1671867541
 20
398.9073066187
 30
0.0
 10
321.2578752407
 20
398.9597079359
 30
0.0
 10
321.4663226849
 20
399.0353695437
 30
0.0
 10
321.8124318513
 20
399.0441147424
 30
0.0
 10
322.1815247005
 20
398.9550683429
 30
0.0
 10
322.7104578035
 20
398.7029217312
 30
0.0
 10
323.3402117658
 20
398.1723961176
 30
0.0
 10
323.7405751316
 20
397.6255132087
 30
0.0
 10
323.9171465481
 20
397.3196842418
 30
0.0
  0
SPLINE
  5
2CB
100
AcDbEntity
  8
0
100
AcDbSpline
 62
7
  6
CONTINUOUS
 70
0
 71
3
 72
11
 73
7
 74
0
 42
0.0000001
 43
0.0000001
 44
0.0000000001
 40
0.0
 40
0.0
 40
0.0
 40
0.0
 40
0.2896099679
 40
0.5491110935
 40
0.7822392383
 40
1.0
 40
1.0
 40
1.0
 40
1.0
 10
365.4868632634
 20
324.3891549949
 30
0.0
 10
365.4868632634
 20
324.2498634457
 30
0.0
 10
365.465664877
 20
323.9848721515
 30
0.0
 10
365.3584451276
 20
323.6207706116
 30
0.0
 10
365.1777770046
 20
323.3252301614
 30
0.0
 10
365.0079502425
 20
323.1827111727
 30
0.0
 10
364.9172655887
 20
323.1303120701
 30
0.0
  0
SPLINE
  5
2CC
100
AcDbEntity
  8
0
100
AcDbSpline
 62
7
  6
CONTINUOUS
 70
0
 71
3
 72
9
 73
5
 74
0
 42
0.0000001
 43
0.0000001
 44
0.0000000001
 40
0.0
 40
0.0
 40
0.0
 40
0.0
 40
0.5255647459
 40
1.0
 40
1.0
 40
1.0
 40
1.0
 10
364.9173172439
 20
326.3056996927
 30
0.0
 10
365.0938687135
 20
325.9999052747
 30
0.0
 10
365.3674550138
 20
325.3799854967
 30
0.0
 10
365.4868632634
 20
324.7079050376
 30
0.0
 10
365.4868632634
 20
324.3891549949
 30
0.0
  0
SPLINE
  5
2CD
100
AcDbEntity
  8
0
100
AcDbSpline
 62
7
  6
CONTINUOUS
 70
0
 71
3
 72
11
 73
7
 74
0
 42
0.0000001
 43
0.0000001
 44
0.0000000001
 40
0.0
 40
0.0
 40
0.0
 40
0.0
 40
0.2897041239
 40
0.5490570377
 40
0.7822824085
 40
1.0
 40
1.0
 40
1.0
 40
1.0
 10
365.4868632634
 20
371.7322154639
 30
0.0
 10
365.4868632634
 20
371.5928791024
 30
0.0
 10
365.4657016825
 20
371.3279187009
 30
0.0
 10
365.3584806722
 20
370.9637672714
 30
0.0
 10
365.1776776713
 20
370.6684102516
 30
0.0
 10
365.0080012791
 20
370.5256689326
 30
0.0
 10
364.9173172439
 20
370.4733109836
 30
0.0
  0
SPLINE
  5
2CE
100
AcDbEntity
  8
0
100
AcDbSpline
 62
7
  6
CONTINUOUS
 70
0
 71
3
 72
15
 73
11
 74
0
 42
0.0000001
 43
0.0000001
 44
0.0000000001
 40
0.0
 40
0.0
 40
0.0
 40
0.0
 40
0.0869374527
 40
0.1864110066
 40
0.303802345
 40
0.4376151342
 40
0.5821146496
 40
0.7294277984
 40
0.8711761549
 40
1.0
 40
1.0
 40
1.0
 40
1.0
 10
362.1673057946
 20
375.236444094
 30
0.0
 10
362.3046776702
 20
375.315758051
 30
0.0
 10
362.6498095147
 20
375.4044451446
 30
0.0
 10
363.2053229688
 20
375.2931795854
 30
0.0
 10
363.7728318294
 20
374.9831746276
 30
0.0
 10
364.3170098765
 20
374.5013043833
 30
0.0
 10
364.7974137197
 20
373.8862956179
 30
0.0
 10
365.1756878886
 20
373.1871974665
 30
0.0
 10
365.4210912532
 20
372.4615088014
 30
0.0
 10
365.4868632634
 20
371.9672651346
 30
0.0
 10
365.4868632634
 20
371.7322154639
 30
0.0
  0
SPLINE
  5
2CF
100
AcDbEntity
  8
0
100
AcDbSpline
 62
7
  6
CONTINUOUS
 70
0
 71
3
 72
9
 73
5
 74
0
 42
0.0000001
 43
0.0000001
 44
0.0000000001
 40
0.0
 40
0.0
 40
0.0
 40
0.0
 40
0.2582483467
 40
1.0
 40
1.0
 40
1.0
 40
1.0
 10
367.6725876343
 20
337.222219906
 30
0.0
 10
367.6296616699
 20
336.5149515016
 30
0.0
 10
367.4145033702
 20
333.7796437207
 30
0.0
 10
366.9976401612
 20
331.0585256565
 30
0.0
 10
366.5568170422
 20
329.0716567147
 30
0.0
  0
SPLINE
  5
2D0
100
AcDbEntity
  8
0
100
AcDbSpline
 62
7
  6
CONTINUOUS
 70
0
 71
3
 72
13
 73
9
 74
0
 42
0.0000001
 43
0.0000001
 44
0.0000000001
 40
0.0
 40
0.0
 40
0.0
 40
0.0
 40
0.0908571933
 40
0.1881376289
 40
0.2963011756
 40
0.41721079
 40
0.6936635604
 40
1.0
 40
1.0
 40
1.0
 40
1.0
 10
364.9172655887
 20
323.1303120701
 30
0.0
 10
364.8265771021
 20
323.0779107529
 30
0.0
 10
364.6181296578
 20
323.0022491451
 30
0.0
 10
364.2720204915
 20
322.9935039464
 30
0.0
 10
363.9029276423
 20
323.0825503458
 30
0.0
 10
363.3739945392
 20
323.3346969576
 30
0.0
 10
362.7442405769
 20
323.8652225712
 30
0.0
 10
362.3438772111
 20
324.4121054801
 30
0.0
 10
362.1673057946
 20
324.717934447
 30
0.0
  0
SPLINE
  5
2D1
100
AcDbEntity
  8
0
100
AcDbSpline
 62
7
  6
CONTINUOUS
 70
0
 71
3
 72
9
 73
5
 74
0
 42
0.0000001
 43
0.0000001
 44
0.0000000001
 40
0.0
 40
0.0
 40
0.0
 40
0.0
 40
0.2430260424
 40
1.0
 40
1.0
 40
1.0
 40
1.0
 10
275.4497633547
 20
301.9932402168
 30
0.0
 10
275.4143189352
 20
302.8523659802
 30
0.0
 10
275.2041077744
 20
306.3846903256
 30
0.0
 10
274.7455937923
 20
309.9009560956
 30
0.0
 10
274.2797662858
 20
312.5384034053
 30
0.0
  0
SPLINE
  5
2D2
100
AcDbEntity
  8
0
100
AcDbSpline
 62
7
  6
CONTINUOUS
 70
0
 71
3
 72
9
 73
5
 74
0
 42
0.0000001
 43
0.0000001
 44
0.0000000001
 40
0.0
 40
0.0
 40
0.0
 40
0.0
 40
0.2410299492
 40
1.0
 40
1.0
 40
1.0
 40
1.0
 10
274.2797662858
 20
275.7957946345
 30
0.0
 10
274.4411764553
 20
276.5232992476
 30
0.0
 10
275.0371416164
 20
279.5578104635
 30
0.0
 10
275.3482073506
 20
282.6456732849
 30
0.0
 10
275.4497633547
 20
284.9899921406
 30
0.0
  0
SPLINE
  5
2D3
100
AcDbEntity
  8
0
100
AcDbSpline
 62
7
  6
CONTINUOUS
 70
0
 71
3
 72
11
 73
7
 74
0
 42
0.0000001
 43
0.0000001
 44
0.0000000001
 40
0.0
 40
0.0
 40
0.0
 40
0.0
 40
0.2896099679
 40
0.5491110935
 40
0.7822392383
 40
1.0
 40
1.0
 40
1.0
 40
1.0
 10
320.5975890793
 20
397.6484636939
 30
0.0
 10
320.5975890793
 20
397.787755243
 30
0.0
 10
320.6187874658
 20
398.0527465372
 30
0.0
 10
320.7260072151
 20
398.4168480771
 30
0.0
 10
320.9066753382
 20
398.7123885274
 30
0.0
 10
321.0765021003
 20
398.8549075161
 30
0.0
 10
321.1671867541
 20
398.9073066187
 30
0.0
  0
SPLINE
  5
2D4
100
AcDbEntity
  8
0
100
AcDbSpline
 62
7
  6
CONTINUOUS
 70
0
 71
3
 72
9
 73
5
 74
0
 42
0.0000001
 43
0.0000001
 44
0.0000000001
 40
0.0
 40
0.0
 40
0.0
 40
0.0
 40
0.5255647459
 40
1.0
 40
1.0
 40
1.0
 40
1.0
 10
321.1671350989
 20
395.7319189961
 30
0.0
 10
320.9905836293
 20
396.037713414
 30
0.0
 10
320.716997329
 20
396.657633192
 30
0.0
 10
320.5975890793
 20
397.3297136512
 30
0.0
 10
320.5975890793
 20
397.6484636939
 30
0.0
  0
SPLINE
  5
2D5
100
AcDbEntity
  8
0
100
AcDbSpline
 62
7
  6
CONTINUOUS
 70
0
 71
3
 72
9
 73
5
 74
0
 42
0.0000001
 43
0.0000001
 44
0.0000000001
 40
0.0
 40
0.0
 40
0.0
 40
0.0
 40
0.256081437
 40
1.0
 40
1.0
 40
1.0
 40
1.0
 10
366.5568170422
 20
365.8142654855
 30
0.0
 10
366.6979741055
 20
365.0150548086
 30
0.0
 10
367.2061911477
 20
361.8867958983
 30
0.0
 10
367.5390815705
 20
358.7292153505
 30
0.0
 10
367.6725876343
 20
356.3753505373
 30
0.0
  0
SPLINE
  5
2D6
100
AcDbEntity
  8
0
100
AcDbSpline
 62
7
  6
CONTINUOUS
 70
0
 71
3
 72
15
 73
11
 74
0
 42
0.0000001
 43
0.0000001
 44
0.0000000001
 40
0.0
 40
0.0
 40
0.0
 40
0.0
 40
0.0869374527
 40
0.1864110066
 40
0.303802345
 40
0.4376151342
 40
0.5821146496
 40
0.7294277984
 40
0.8711761549
 40
1.0
 40
1.0
 40
1.0
 40
1.0
 10
363.167309958
 20
369.4629149181
 30
0.0
 10
363.0299380824
 20
369.3836009611
 30
0.0
 10
362.6848062379
 20
369.2949138676
 30
0.0
 10
362.1292927838
 20
369.4061794267
 30
0.0
 10
361.5617839231
 20
369.7161843845
 30
0.0
 10
361.017605876
 20
370.1980546288
 30
0.0
 10
360.5372020328
 20
370.8130633943
 30
0.0
 10
360.158927864
 20
371.5121615456
 30
0.0
 10
359.9135244994
 20
372.2378502107
 30
0.0
 10
359.8477524892
 20
372.7320938775
 30
0.0
 10
359.8477524892
 20
372.9671435483
 30
0.0
  0
SPLINE
  5
2D7
100
AcDbEntity
  8
0
100
AcDbSpline
 62
7
  6
CONTINUOUS
 70
0
 71
3
 72
11
 73
7
 74
0
 42
0.0000001
 43
0.0000001
 44
0.0000000001
 40
0.0
 40
0.0
 40
0.0
 40
0.0
 40
0.2897041239
 40
0.5490570377
 40
0.7822824085
 40
1.0
 40
1.0
 40
1.0
 40
1.0
 10
359.8477524892
 20
372.9671435483
 30
0.0
 10
359.8477524892
 20
373.1064799097
 30
0.0
 10
359.8689140701
 20
373.3714403112
 30
0.0
 10
359.9761350804
 20
373.7355917407
 30
0.0
 10
360.1569380813
 20
374.0309487605
 30
0.0
 10
360.3266144735
 20
374.1736900795
 30
0.0
 10
360.4172985087
 20
374.2260480285
 30
0.0
  0
SPLINE
  5
2D8
100
AcDbEntity
  8
0
100
AcDbSpline
 62
7
  6
CONTINUOUS
 70
0
 71
3
 72
11
 73
7
 74
0
 42
0.0000001
 43
0.0000001
 44
0.0000000001
 40
0.0
 40
0.0
 40
0.0
 40
0.0
 40
0.23648323
 40
0.498369795
 40
0.761140276
 40
1.0
 40
1.0
 40
1.0
 40
1.0
 10
233.9359156757
 20
372.0012951124
 30
0.0
 10
234.2416244478
 20
372.1777951007
 30
0.0
 10
234.8212739646
 20
372.6627420133
 30
0.0
 10
235.5021741882
 20
373.5824682569
 30
0.0
 10
235.9750764884
 20
374.6284355693
 30
0.0
 10
236.1192073035
 20
375.3748581415
 30
0.0
 10
236.1271864199
 20
375.7313178291
 30
0.0
  0
SPLINE
  5
2D9
100
AcDbEntity
  8
0
100
AcDbSpline
 62
7
  6
CONTINUOUS
 70
0
 71
3
 72
11
 73
7
 74
0
 42
0.0000001
 43
0.0000001
 44
0.0000000001
 40
0.0
 40
0.0
 40
0.0
 40
0.0
 40
0.2388599541
 40
0.5016305173
 40
0.7635169984
 40
1.0
 40
1.0
 40
1.0
 40
1.0
 10
264.7651302884
 20
359.197567271
 30
0.0
 10
264.7571511642
 20
358.84110724
 30
0.0
 10
264.6130201443
 20
358.0946842059
 30
0.0
 10
264.1401174648
 20
357.0487166903
 30
0.0
 10
263.4592172338
 20
356.1289908792
 30
0.0
 10
262.8795680209
 20
355.6440443721
 30
0.0
 10
262.5738595441
 20
355.4675445543
 30
0.0
  0
SPLINE
  5
2DA
100
AcDbEntity
  8
0
100
AcDbSpline
 62
7
  6
CONTINUOUS
 70
0
 71
3
 72
11
 73
7
 74
0
 42
0.0000001
 43
0.0000001
 44
0.0000000001
 40
0.0
 40
0.0
 40
0.0
 40
0.0
 40
0.23648323
 40
0.498369795
 40
0.761140276
 40
1.0
 40
1.0
 40
1.0
 40
1.0
 10
255.5027622926
 20
359.5499520995
 30
0.0
 10
255.8084710648
 20
359.7264520878
 30
0.0
 10
256.3881205816
 20
360.2113990004
 30
0.0
 10
257.0690208052
 20
361.131125244
 30
0.0
 10
257.5419231053
 20
362.1770925565
 30
0.0
 10
257.6860539204
 20
362.9235151286
 30
0.0
 10
257.6940330369
 20
363.2799748162
 30
0.0
  0
ENDSEC
  0
SECTION
  2
OBJECTS
  0
DICTIONARY
  5
C
100
AcDbDictionary
280
0
281
1
  3
ACAD_GROUP
350
D
  3
ACAD_MLINESTYLE
350
17
  3
ACAD_LAYOUT
350
1A
  3
ACAD_PLOTSETTINGS
350
19
  3
ACAD_PLOTSTYLENAME
350
E
  0
DICTIONARY
  5
D
102
{ACAD_REACTORS
330
C
102
}
100
AcDbDictionary
280
0
281
1
  0
ACDBDICTIONARYWDFLT
  5
E
102
{ACAD_REACTORS
330
C
102
}
100
AcDbDictionary
281
1
  3
Normal
350
F
100
AcDbDictionaryWithDefault
340
F
  0
DICTIONARY
  5
17
102
{ACAD_REACTORS
330
C
102
}
100
AcDbDictionary
280
0
281
1
  3
Standard
350
18
  0
DICTIONARY
  5
19
102
{ACAD_REACTORS
330
C
102
}
100
AcDbDictionary
281
1
  0
DICTIONARY
  5
1A
102
{ACAD_REACTORS
330
C
102
}
100
AcDbDictionary
281
1
  3
Model
350
2DB
  3
Layout1
350
2DC
  0
ACDBPLACEHOLDER
  5
F
102
{ACAD_REACTORS
330
E
102
}
  0
MLINESTYLE
  5
18
102
{ACAD_REACTORS
330
17
102
}
100
AcDbMlineStyle
  2
STANDARD
 70
0
  3

 62
256
 51
90.0
 52
90.0
 71
2
 49
0.5
 62
256
  6
BYLAYER
 49
-0.5
 62
256
  6
BYLAYER
  0
LAYOUT
  5
2DB
102
{ACAD_REACTORS
330
1A
102
}
100
AcDbPlotSettings
  1

  2
none_device
  4

  6

 40
0.0
 41
0.0
 42
0.0
 43
0.0
 44
210.0
 45
297.0
 46
0.0
 47
0.0
 48
0.0
 49
0.0
140
0.0
141
0.0
142
1.0
143
1.0
 70
1024
 72
1
 73
0
 74
0
  7

 75
0
147
1.0
148
0.0
149
0.0
100
AcDbLayout
  1
Model
 70
0
 71
0
 10
0.0
 20
0.0
 11
210.0
 21
297.0
 12
0.0
 22
0.0
 32
0.0
 14
0.0
 24
0.0
 34
0.0
 15
0.0
 25
0.0
 35
0.0
146
0.0
 13
0.0
 23
0.0
 33
0.0
 16
1.0
 26
0.0
 36
0.0
 17
0.0
 27
1.0
 37
0.0
 76
0
330
210
345
0
346
0
  0
LAYOUT
  5
2DC
102
{ACAD_REACTORS
330
1A
102
}
100
AcDbPlotSettings
  1

  2
none_device
  4

  6

 40
0.0
 41
0.0
 42
0.0
 43
0.0
 44
210.0
 45
297.0
 46
0.0
 47
0.0
 48
0.0
 49
0.0
140
0.0
141
0.0
142
1.0
143
1.0
 70
0
 72
1
 73
0
 74
0
  7

 75
0
147
1.0
148
0.0
149
0.0
100
AcDbLayout
  1
Layout1
 70
0
 71
1
 10
0.0
 20
0.0
 11
210.0
 21
297.0
 12
0.0
 22
0.0
 32
0.0
 14
0.0
 24
0.0
 34
0.0
 15
0.0
 25
0.0
 35
0.0
146
0.0
 13
0.0
 23
0.0
 33
0.0
 16
1.0
 26
0.0
 36
0.0
 17
0.0
 27
1.0
 37
0.0
 76
0
330
211
345
0
346
0
  0
ENDSEC
  0
EOF
