999
DXF file: Y:\001_SCHNEIDER_PARIS\maxime fuentes - génération CAD 2D\TRAVAIL\KAXZ1M12_2D-Views\kaxz1m12_2d-views_3.dxf
999
Pro/ENGINEER 2018260 by Parametric Technology Corporation
  0
SECTION
  2
HEADER
  9
$ACADVER
  1
AC1027
  9
$DWGCODEPAGE
  3
ANSI_1252
  9
$EXTMAX
 10
558.8
 20
431.8
 30
0.0
  9
$EXTMIN
 10
0.0
 20
0.0
 30
0.0
  9
$LIMMIN
 10
0.0
 20
0.0
  9
$LIMMAX
 10
558.8
 20
431.8
  9
$VIEWCTR
 10
279.4
 20
215.9
  9
$VIEWSIZE
 40
431.8
  9
$CLAYER
  8
0
  9
$LTSCALE
 40
30.734
  9
$CELTYPE
  6
BYLAYER
  9
$DIMSCALE
 40
1.0
  9
$DIMASZ
 40
3.5
  9
$DIMEXO
 40
1.0
  9
$DIMDLI
 40
21.2344
  9
$DIMEXE
 40
3.0
  9
$DIMCEN
 40
5.0292
  9
$DIMLFAC
 40
1.0
  9
$DIMBLK
  1
_FILLED
  9
$DIMALT
 70
0
  9
$DIMALTF
 40
0.0393700787
  9
$DIMTXT
 40
4.0
  9
$DIMTOL
 70
1
  9
$DIMLIM
 70
0
  9
$DIMTFAC
 40
1.0
  9
$DIMTP
 40
0.0001
  9
$DIMTM
 40
0.0001
  9
$DIMGAP
 40
0.625
  9
$DIMDSEP
 70
46
  9
$AUNITS
 70
0
  9
$PDMODE
 70
0
  9
$PDSIZE
 40
0.01
  9
$HANDSEED
  5
29E
  9
$TILEMODE
 70
1
  9
$MEASUREMENT
 70
1
  9
$INSUNITS
 70
4
  0
ENDSEC
  0
SECTION
  2
CLASSES
  0
CLASS
  1
ACDBDICTIONARYWDFLT
  2
AcDbDictionaryWithDefault
  3
AutoCAD 2000
 90
0
 91
1
280
0
281
0
  0
CLASS
  1
ACDBPLACEHOLDER
  2
AcDbPlaceHolder
  3
AutoCAD 2000
 90
0
 91
1
280
0
281
0
  0
CLASS
  1
LAYOUT
  2
AcDbLayout
  3
AutoCAD 2000
 90
0
 91
0
280
0
281
0
  0
ENDSEC
  0
SECTION
  2
TABLES
  0
TABLE
  2
VPORT
  5
8
100
AcDbSymbolTable
 70
2
  0
VPORT
  5
1F4
100
AcDbSymbolTableRecord
100
AcDbViewportTableRecord
  2
*ACTIVE
 70
0
 10
0.0
 20
0.0
 11
1.0
 21
1.0
 12
279.4
 22
215.9
 13
0.0
 23
0.0
 14
1.0
 24
1.0
 15
0.0
 25
0.0
 16
0.0
 26
0.0
 36
1.0
 17
0.0
 27
0.0
 37
0.0
 40
431.8
 41
1.2941176471
 42
50.0
 43
0.0
 44
0.0
 50
0.0
 51
0.0
 71
0
 72
100
 73
1
 74
1
 75
0
 76
0
 77
0
 78
0
  0
ENDTAB
  0
TABLE
  2
LTYPE
  5
5
100
AcDbSymbolTable
 70
6
  0
LTYPE
  5
14
100
AcDbSymbolTableRecord
100
AcDbLinetypeTableRecord
  2
BYBLOCK
 70
0
  3

 72
65
 73
0
 40
0.0
  0
LTYPE
  5
15
100
AcDbSymbolTableRecord
100
AcDbLinetypeTableRecord
  2
BYLAYER
 70
0
  3

 72
65
 73
0
 40
0.0
  0
LTYPE
  5
16
100
AcDbSymbolTableRecord
100
AcDbLinetypeTableRecord
  2
CONTINUOUS
 70
64
  3
Solid line
 72
65
 73
0
 40
0.0
  0
LTYPE
  5
1F5
100
AcDbSymbolTableRecord
100
AcDbLinetypeTableRecord
  2
CENTER
 70
64
  3
____ _ ____ _ ____ _ ____ _ ____ _ ____ _ ____
 72
65
 73
4
 40
0.6
 49
0.375
 74
0
 49
-0.075
 74
0
 49
0.075
 74
0
 49
-0.075
 74
0
  0
LTYPE
  5
1F6
100
AcDbSymbolTableRecord
100
AcDbLinetypeTableRecord
  2
HIDDEN
 70
64
  3
- - - - - - - - - - - - - - - - - - - -
 72
65
 73
2
 40
0.2
 49
0.1
 74
0
 49
-0.1
 74
0
  0
LTYPE
  5
1F7
100
AcDbSymbolTableRecord
100
AcDbLinetypeTableRecord
  2
PHANTOM
 70
64
  3
_____ _ _ _____ _ _ _____ _ _ _____
 72
65
 73
6
 40
0.8
 49
0.45
 74
0
 49
-0.05
 74
0
 49
0.1
 74
0
 49
-0.05
 74
0
 49
0.1
 74
0
 49
-0.05
 74
0
  0
LTYPE
  5
1F8
100
AcDbSymbolTableRecord
100
AcDbLinetypeTableRecord
  2
DOT
 70
64
  3
. . . . . . . . . . . . . . . . . . . .
 72
65
 73
2
 40
0.2
 49
0.1
 74
0
 49
-0.1
 74
0
  0
LTYPE
  5
1F9
100
AcDbSymbolTableRecord
100
AcDbLinetypeTableRecord
  2
DASHED
 70
64
  3
- - - - - - - - - - - - - - - - - - - -
 72
65
 73
2
 40
0.2
 49
0.1
 74
0
 49
-0.1
 74
0
  0
ENDTAB
  0
TABLE
  2
LAYER
  5
2
100
AcDbSymbolTable
 70
36
  0
LAYER
  5
10
100
AcDbSymbolTableRecord
100
AcDbLayerTableRecord
  2
0
 70
0
 62
7
  6
CONTINUOUS
370
-3
390
F
  0
LAYER
  5
1FA
100
AcDbSymbolTableRecord
100
AcDbLayerTableRecord
  2
DEFAULT_1
 70
0
 62
7
  6
CENTER
370
-3
390
F
  0
LAYER
  5
1FB
100
AcDbSymbolTableRecord
100
AcDbLayerTableRecord
  2
DEFAULT_2
 70
0
 62
8
  6
HIDDEN
370
-3
390
F
  0
LAYER
  5
1FC
100
AcDbSymbolTableRecord
100
AcDbLayerTableRecord
  2
DEFAULT_3
 70
0
 62
7
  6
PHANTOM
370
-3
390
F
  0
LAYER
  5
1FD
100
AcDbSymbolTableRecord
100
AcDbLayerTableRecord
  2
01_ALL_DTM_PLN
 70
0
 62
7
  6
CONTINUOUS
370
-3
390
F
  0
LAYER
  5
1FE
100
AcDbSymbolTableRecord
100
AcDbLayerTableRecord
  2
01__ASM_ALL_DTM_PLN
 70
0
 62
7
  6
CONTINUOUS
370
-3
390
F
  0
LAYER
  5
1FF
100
AcDbSymbolTableRecord
100
AcDbLayerTableRecord
  2
01__ASM_DEF_DTM_PLN
 70
0
 62
7
  6
CONTINUOUS
370
-3
390
F
  0
LAYER
  5
200
100
AcDbSymbolTableRecord
100
AcDbLayerTableRecord
  2
01___PRT_ALL_DTM_PLN
 70
0
 62
7
  6
CONTINUOUS
370
-3
390
F
  0
LAYER
  5
201
100
AcDbSymbolTableRecord
100
AcDbLayerTableRecord
  2
01___PRT_DEF_DTM_PLN
 70
0
 62
7
  6
CONTINUOUS
370
-3
390
F
  0
LAYER
  5
202
100
AcDbSymbolTableRecord
100
AcDbLayerTableRecord
  2
02_ALL_AXES
 70
0
 62
7
  6
CONTINUOUS
370
-3
390
F
  0
LAYER
  5
203
100
AcDbSymbolTableRecord
100
AcDbLayerTableRecord
  2
02__ASM_ALL_AXES
 70
0
 62
7
  6
CONTINUOUS
370
-3
390
F
  0
LAYER
  5
204
100
AcDbSymbolTableRecord
100
AcDbLayerTableRecord
  2
02___PRT_ALL_AXES
 70
0
 62
7
  6
CONTINUOUS
370
-3
390
F
  0
LAYER
  5
205
100
AcDbSymbolTableRecord
100
AcDbLayerTableRecord
  2
03_ALL_CURVES
 70
0
 62
7
  6
CONTINUOUS
370
-3
390
F
  0
LAYER
  5
206
100
AcDbSymbolTableRecord
100
AcDbLayerTableRecord
  2
03__ASM_ALL_CURVES
 70
0
 62
7
  6
CONTINUOUS
370
-3
390
F
  0
LAYER
  5
207
100
AcDbSymbolTableRecord
100
AcDbLayerTableRecord
  2
03___PRT_ALL_CURVES
 70
0
 62
7
  6
CONTINUOUS
370
-3
390
F
  0
LAYER
  5
208
100
AcDbSymbolTableRecord
100
AcDbLayerTableRecord
  2
04_ALL_DTM_PNT
 70
0
 62
7
  6
CONTINUOUS
370
-3
390
F
  0
LAYER
  5
209
100
AcDbSymbolTableRecord
100
AcDbLayerTableRecord
  2
04__ASM_ALL_DTM_PNT
 70
0
 62
7
  6
CONTINUOUS
370
-3
390
F
  0
LAYER
  5
20A
100
AcDbSymbolTableRecord
100
AcDbLayerTableRecord
  2
04___PRT_ALL_DTM_PNT
 70
0
 62
7
  6
CONTINUOUS
370
-3
390
F
  0
LAYER
  5
20B
100
AcDbSymbolTableRecord
100
AcDbLayerTableRecord
  2
05_ALL_DTM_CSYS
 70
0
 62
7
  6
CONTINUOUS
370
-3
390
F
  0
LAYER
  5
20C
100
AcDbSymbolTableRecord
100
AcDbLayerTableRecord
  2
05__ASM_ALL_DTM_CSYS
 70
0
 62
7
  6
CONTINUOUS
370
-3
390
F
  0
LAYER
  5
20D
100
AcDbSymbolTableRecord
100
AcDbLayerTableRecord
  2
05__ASM_DEF_DTM_CSYS
 70
0
 62
7
  6
CONTINUOUS
370
-3
390
F
  0
LAYER
  5
20E
100
AcDbSymbolTableRecord
100
AcDbLayerTableRecord
  2
05___PRT_ALL_DTM_CSYS
 70
0
 62
7
  6
CONTINUOUS
370
-3
390
F
  0
LAYER
  5
20F
100
AcDbSymbolTableRecord
100
AcDbLayerTableRecord
  2
05___PRT_DEF_DTM_CSYS
 70
0
 62
7
  6
CONTINUOUS
370
-3
390
F
  0
LAYER
  5
210
100
AcDbSymbolTableRecord
100
AcDbLayerTableRecord
  2
06_ALL_SURFS
 70
0
 62
7
  6
CONTINUOUS
370
-3
390
F
  0
LAYER
  5
211
100
AcDbSymbolTableRecord
100
AcDbLayerTableRecord
  2
06__ASM_ALL_SURFS
 70
0
 62
7
  6
CONTINUOUS
370
-3
390
F
  0
LAYER
  5
212
100
AcDbSymbolTableRecord
100
AcDbLayerTableRecord
  2
06___PRT_ALL_SURFS
 70
0
 62
7
  6
CONTINUOUS
370
-3
390
F
  0
LAYER
  5
213
100
AcDbSymbolTableRecord
100
AcDbLayerTableRecord
  2
07__ASM_ALL_SKELETONS
 70
0
 62
7
  6
CONTINUOUS
370
-3
390
F
  0
LAYER
  5
214
100
AcDbSymbolTableRecord
100
AcDbLayerTableRecord
  2
CLOSED_SHELL
 70
0
 62
7
  6
CONTINUOUS
370
-3
390
F
  0
LAYER
  5
215
100
AcDbSymbolTableRecord
100
AcDbLayerTableRecord
  2
Colour
 70
0
 62
7
  6
CONTINUOUS
370
-3
390
F
  0
LAYER
  5
216
100
AcDbSymbolTableRecord
100
AcDbLayerTableRecord
  2
ORIENTED_CLOSED_SHE
 70
0
 62
7
  6
CONTINUOUS
370
-3
390
F
  0
LAYER
  5
217
100
AcDbSymbolTableRecord
100
AcDbLayerTableRecord
  2
white
 70
0
 62
7
  6
CONTINUOUS
370
-3
390
F
  0
ENDTAB
  0
TABLE
  2
STYLE
  5
3
100
AcDbSymbolTable
 70
1
  0
STYLE
  5
11
100
AcDbSymbolTableRecord
100
AcDbTextStyleTableRecord
  2
STANDARD
 70
0
 40
0.0
 41
0.6
 50
0.0
 71
0
 42
0.2
  3
txt
  4

  0
STYLE
  5
218
100
AcDbSymbolTableRecord
100
AcDbTextStyleTableRecord
  2
TEXTSTYLE_1
 70
0
 40
0.0
 41
0.8
 50
0.0
 71
0
 42
0.2
  3
gdt
  4

  0
ENDTAB
  0
TABLE
  2
VIEW
  5
6
100
AcDbSymbolTable
 70
0
  0
ENDTAB
  0
TABLE
  2
UCS
  5
7
100
AcDbSymbolTable
 70
0
  0
ENDTAB
  0
TABLE
  2
APPID
  5
9
100
AcDbSymbolTable
 70
1
  0
APPID
  5
219
100
AcDbSymbolTableRecord
100
AcDbRegAppTableRecord
  2
ACAD
 70
0
  0
ENDTAB
  0
TABLE
  2
BLOCK_RECORD
  5
1
100
AcDbSymbolTable
 70
0
  0
BLOCK_RECORD
  5
21A
100
AcDbSymbolTableRecord
100
AcDbBlockTableRecord
  2
*Model_Space
  0
BLOCK_RECORD
  5
21B
100
AcDbSymbolTableRecord
100
AcDbBlockTableRecord
  2
*Paper_Space
  0
BLOCK_RECORD
  5
21C
100
AcDbSymbolTableRecord
100
AcDbBlockTableRecord
  2
_FILLED
  0
ENDTAB
  0
TABLE
  2
DIMSTYLE
  5
A
100
AcDbSymbolTable
 70
1
100
AcDbDimStyleTable
 71
0
  0
DIMSTYLE
105
21D
100
AcDbSymbolTableRecord
100
AcDbDimStyleTableRecord
  2
STANDARD
 70
0
  3

  4

 40
1.0
 41
3.5
 42
1.0
 43
0.38
 44
3.0
 45
0.0
 46
0.0
 47
0.0001
 48
0.0001
140
4.0
141
0.09
142
0.0
143
25.4
144
1.0
145
0.0
146
1.0
147
0.625
 71
1.0
 72
0.0
 73
0
 74
0
 75
0
 76
0
 77
1
 78
8
 79
2
170
0
171
3
172
0
173
0
174
0
175
0
176
0
177
0
178
0
270
2
179
4
271
4
272
4
273
2
274
2
275
0
280
0
281
0
282
0
283
1
284
8
285
0
286
0
287
3
288
0
340
11
278
46
341
21C
342
21C
343
21C
344
21C
  0
ENDTAB
  0
ENDSEC
  0
SECTION
  2
BLOCKS
  0
BLOCK
  5
20
100
AcDbEntity
  8
0
100
AcDbBlockBegin
  2
*Model_Space
 70
0
 10
0.0
 20
0.0
 30
0.0
  3
*Model_Space
  1

  0
ENDBLK
  5
21
100
AcDbEntity
  8
0
100
AcDbBlockEnd
  0
BLOCK
  5
1C
100
AcDbEntity
  8
0
100
AcDbBlockBegin
  2
*Paper_Space
 70
0
 10
0.0
 20
0.0
 30
0.0
  3
*Paper_Space
  1

  0
ENDBLK
  5
1D
100
AcDbEntity
  8
0
100
AcDbBlockEnd
  0
BLOCK
  5
21E
100
AcDbEntity
  8
0
100
AcDbBlockBegin
  2
_FILLED
 70
64
 10
0.0
 20
0.0
  3
_FILLED
  1

  0
SOLID
  5
21F
100
AcDbEntity
  8
0
  6
BYBLOCK
 62
0
100
AcDbTrace
 10
0.0
 20
0.0
 11
-1.0
 21
0.2857142857
 12
-1.0
 22
-0.2857142857
 13
-1.0
 23
-0.2857142857
  0
ENDBLK
  5
220
100
AcDbEntity
  8
0
  6
BYBLOCK
 62
0
100
AcDbBlockEnd
  0
ENDSEC
  0
SECTION
  2
ENTITIES
  0
LINE
  5
221
100
AcDbEntity
  8
0
100
AcDbLine
 62
7
  6
CONTINUOUS
 10
196.7242658892
 20
241.4761230704
 11
196.7242658892
 21
252.6275822829
  0
LINE
  5
222
100
AcDbEntity
  8
0
100
AcDbLine
 62
7
  6
CONTINUOUS
 10
197.0140436371
 20
240.9742069631
 11
197.0140436371
 21
253.1294983902
  0
LINE
  5
223
100
AcDbEntity
  8
0
100
AcDbLine
 62
7
  6
CONTINUOUS
 10
196.7242658894
 20
252.6275886083
 11
197.0140436371
 21
253.1294983902
  0
LINE
  5
224
100
AcDbEntity
  8
0
100
AcDbLine
 62
7
  6
CONTINUOUS
 10
196.7242658894
 20
241.476116745
 11
197.0140436371
 21
240.9742069631
  0
LINE
  5
225
100
AcDbEntity
  8
0
100
AcDbLine
 62
7
  6
CONTINUOUS
 10
199.1742658892
 20
236.1019820674
 11
199.1742658892
 21
258.0017232852
  0
LINE
  5
226
100
AcDbEntity
  8
0
100
AcDbLine
 62
7
  6
CONTINUOUS
 10
205.9742658892
 20
257.8018526767
 11
206.1742658892
 21
258.0018526767
  0
LINE
  5
227
100
AcDbEntity
  8
0
100
AcDbLine
 62
7
  6
CONTINUOUS
 10
205.9742658892
 20
236.3018526767
 11
206.1741564746
 21
236.1019620913
  0
LINE
  5
228
100
AcDbEntity
  8
0
100
AcDbLine
 62
7
  6
CONTINUOUS
 10
203.1742658892
 20
258.0017057748
 11
203.1742658892
 21
236.1019995785
  0
LINE
  5
229
100
AcDbEntity
  8
0
100
AcDbLine
 62
7
  6
CONTINUOUS
 10
237.1743336038
 20
233.3848053814
 11
222.5942658892
 21
232.9590566244
  0
LINE
  5
22A
100
AcDbEntity
  8
0
100
AcDbLine
 62
7
  6
CONTINUOUS
 10
222.5942733705
 20
233.3404350808
 11
237.1728610926
 21
233.7661406209
  0
LINE
  5
22B
100
AcDbEntity
  8
0
100
AcDbLine
 62
7
  6
CONTINUOUS
 10
215.0742658892
 20
232.5518526767
 11
221.8312404504
 21
232.5518526767
  0
LINE
  5
22C
100
AcDbEntity
  8
0
100
AcDbLine
 62
7
  6
CONTINUOUS
 10
205.9742658892
 20
236.3020879126
 11
205.9742658892
 21
257.8016174408
  0
LINE
  5
22D
100
AcDbEntity
  8
0
100
AcDbLine
 62
7
  6
CONTINUOUS
 10
206.174265889
 20
236.1018526767
 11
206.1742658892
 21
258.0018526767
  0
LINE
  5
22E
100
AcDbEntity
  8
0
100
AcDbLine
 62
7
  6
CONTINUOUS
 10
222.4242658889
 20
234.7518526767
 11
222.5942658898
 21
234.7518526767
  0
LINE
  5
22F
100
AcDbEntity
  8
0
100
AcDbLine
 62
7
  6
CONTINUOUS
 10
214.8742658892
 20
236.1018526767
 11
206.1742658892
 21
236.1018526767
  0
LINE
  5
230
100
AcDbEntity
  8
0
100
AcDbLine
 62
7
  6
CONTINUOUS
 10
203.1742658892
 20
236.1018526767
 11
199.17426589
 21
236.1018526767
  0
LINE
  5
231
100
AcDbEntity
  8
0
100
AcDbLine
 62
7
  6
CONTINUOUS
 10
197.0140436371
 20
240.9742069631
 11
199.1742658892
 21
240.3953771552
  0
LINE
  5
232
100
AcDbEntity
  8
0
100
AcDbLine
 62
7
  6
CONTINUOUS
 10
203.1742658892
 20
236.9768526767
 11
205.9742658892
 21
236.9768526767
  0
LINE
  5
233
100
AcDbEntity
  8
0
100
AcDbLine
 62
7
  6
CONTINUOUS
 10
214.8742658892
 20
232.75207789
 11
214.8742658892
 21
261.3516274634
  0
LINE
  5
234
100
AcDbEntity
  8
0
100
AcDbLine
 62
9
  6
CONTINUOUS
 10
215.0742658892
 20
232.5518526767
 11
215.0742658892
 21
261.5518526767
  0
LINE
  5
235
100
AcDbEntity
  8
0
100
AcDbLine
 62
7
  6
CONTINUOUS
 10
221.8312404504
 20
261.5518526767
 11
221.8312404504
 21
232.5518526822
  0
LINE
  5
236
100
AcDbEntity
  8
0
100
AcDbLine
 62
7
  6
CONTINUOUS
 10
222.4242658889
 20
234.5518526767
 11
222.424265889
 21
259.5518526762
  0
LINE
  5
237
100
AcDbEntity
  8
0
100
AcDbLine
 62
7
  6
CONTINUOUS
 10
222.5942658892
 20
232.958980598
 11
222.5942658892
 21
261.1425803409
  0
LINE
  5
238
100
AcDbEntity
  8
0
100
AcDbLine
 62
7
  6
CONTINUOUS
 10
223.0942658886
 20
253.7679236155
 11
223.0942658897
 21
237.8745610999
  0
LINE
  5
239
100
AcDbEntity
  8
0
100
AcDbLine
 62
7
  6
CONTINUOUS
 10
224.1942658892
 20
260.548445444
 11
224.1942658892
 21
259.8097663138
  0
LINE
  5
23A
100
AcDbEntity
  8
0
100
AcDbLine
 62
7
  6
CONTINUOUS
 10
224.2942658891
 20
260.58594445
 11
224.2942658893
 21
259.8000277505
  0
LINE
  5
23B
100
AcDbEntity
  8
0
100
AcDbLine
 62
7
  6
CONTINUOUS
 10
225.7942658892
 20
259.7553627354
 11
225.7942658892
 21
259.6598278929
  0
LINE
  5
23C
100
AcDbEntity
  8
0
100
AcDbLine
 62
7
  6
CONTINUOUS
 10
203.1742658892
 20
257.1268526767
 11
205.9742658892
 21
257.1268526767
  0
LINE
  5
23D
100
AcDbEntity
  8
0
100
AcDbLine
 62
7
  6
CONTINUOUS
 10
197.0140436371
 20
253.1294983902
 11
199.1742658892
 21
253.7083281981
  0
LINE
  5
23E
100
AcDbEntity
  8
0
100
AcDbLine
 62
7
  6
CONTINUOUS
 10
214.8742658892
 20
258.0018526767
 11
206.1742658892
 21
258.0018526767
  0
LINE
  5
23F
100
AcDbEntity
  8
0
100
AcDbLine
 62
7
  6
CONTINUOUS
 10
203.1742658892
 20
258.0018526767
 11
199.1742658892
 21
258.0018526767
  0
LINE
  5
240
100
AcDbEntity
  8
0
100
AcDbLine
 62
7
  6
CONTINUOUS
 10
237.1732414535
 20
257.7786912533
 11
222.5942746826
 21
257.8890722408
  0
LINE
  5
241
100
AcDbEntity
  8
0
100
AcDbLine
 62
7
  6
CONTINUOUS
 10
225.7942658892
 20
260.6417776916
 11
224.2942658891
 21
260.58594445
  0
LINE
  5
242
100
AcDbEntity
  8
0
100
AcDbLine
 62
7
  6
CONTINUOUS
 10
222.424265889
 20
259.3518526767
 11
222.5942658882
 21
259.3518526767
  0
LINE
  5
243
100
AcDbEntity
  8
0
100
AcDbLine
 62
7
  6
CONTINUOUS
 10
237.0858666734
 20
259.480588031
 11
225.7942658892
 21
259.7553627354
  0
LINE
  5
244
100
AcDbEntity
  8
0
100
AcDbLine
 62
7
  6
CONTINUOUS
 10
225.7942658892
 20
260.6417776916
 11
237.0858666728
 21
260.3670029873
  0
LINE
  5
245
100
AcDbEntity
  8
0
100
AcDbLine
 62
7
  6
CONTINUOUS
 10
225.7942658892
 20
259.7553627354
 11
224.2942658893
 21
259.8841992764
  0
LINE
  5
246
100
AcDbEntity
  8
0
100
AcDbLine
 62
7
  6
CONTINUOUS
 10
237.1749431975
 20
260.7167441066
 11
237.1732611202
 21
260.7109704618
  0
LINE
  5
247
100
AcDbEntity
  8
0
100
AcDbLine
 62
7
  6
CONTINUOUS
 10
215.0742658892
 20
261.5518526767
 11
221.8312404504
 21
261.5518526767
  0
LINE
  5
248
100
AcDbEntity
  8
0
100
AcDbLine
 62
7
  6
CONTINUOUS
 10
237.1749431975
 20
260.7167441066
 11
222.5942658892
 21
261.1425043294
  0
LINE
  5
249
100
AcDbEntity
  8
0
100
AcDbLine
 62
9
  6
CONTINUOUS
 10
237.0858666728
 20
260.3670029872
 11
237.0858666728
 21
259.4805880309
  0
LINE
  5
24A
100
AcDbEntity
  8
0
100
AcDbLine
 62
9
  6
CONTINUOUS
 10
237.6426640652
 20
260.3383332173
 11
237.6420884623
 21
260.3497183979
  0
LINE
  5
24B
100
AcDbEntity
  8
0
100
AcDbLine
 62
9
  6
CONTINUOUS
 10
237.5543793341
 20
259.1409867654
 11
237.5543793341
 21
260.0274017217
  0
LINE
  5
24C
100
AcDbEntity
  8
0
100
AcDbLine
 62
7
  6
CONTINUOUS
 10
238.9866243011
 20
253.2614254009
 11
238.8122537159
 21
254.9914250679
  0
LINE
  5
24D
100
AcDbEntity
  8
0
100
AcDbLine
 62
7
  6
CONTINUOUS
 10
239.3348290692
 20
247.8117968109
 11
239.3387093831
 21
247.7320426022
  0
LINE
  5
24E
100
AcDbEntity
  8
0
100
AcDbLine
 62
7
  6
CONTINUOUS
 10
239.3934676097
 20
246.6065669127
 11
239.3942649754
 21
246.5901782202
  0
LINE
  5
24F
100
AcDbEntity
  8
0
100
AcDbLine
 62
7
  6
CONTINUOUS
 10
239.383527439
 20
247.7342231569
 11
239.3786384471
 21
247.8347099726
  0
LINE
  5
250
100
AcDbEntity
  8
0
100
AcDbLine
 62
7
  6
CONTINUOUS
 10
239.3769382873
 20
247.8128274236
 11
239.3791276782
 21
247.732967224
  0
LWPOLYLINE
  5
251
100
AcDbEntity
  8
0
100
AcDbPolyline
 62
7
  6
CONTINUOUS
 90
3
 70
0
 10
239.3740229491
 20
248.7650497221
 10
239.3581402767
 20
249.5754682014
 10
239.214715791
 20
250.9984393527
  0
LINE
  5
252
100
AcDbEntity
  8
0
100
AcDbLine
 62
7
  6
CONTINUOUS
 10
239.3937008426
 20
247.7342681311
 11
239.3930690347
 21
247.8348028131
  0
LINE
  5
253
100
AcDbEntity
  8
0
100
AcDbLine
 62
7
  6
CONTINUOUS
 10
239.3942656396
 20
247.5088806597
 11
239.3942649777
 21
247.5135271329
  0
LINE
  5
254
100
AcDbEntity
  8
0
100
AcDbLine
 62
7
  6
CONTINUOUS
 10
239.3786384471
 20
247.7347431402
 11
239.3786384471
 21
248.7003432421
  0
LINE
  5
255
100
AcDbEntity
  8
0
100
AcDbLine
 62
7
  6
CONTINUOUS
 10
239.3942658892
 20
246.3027669192
 11
239.3942627716
 21
246.6065671739
  0
LINE
  5
256
100
AcDbEntity
  8
0
100
AcDbLine
 62
7
  6
CONTINUOUS
 10
239.3580984002
 20
244.5272059318
 11
239.3942079139
 21
246.3734133619
  0
LWPOLYLINE
  5
257
100
AcDbEntity
  8
0
100
AcDbPolyline
 62
7
  6
CONTINUOUS
 90
3
 70
0
 10
237.6414769215
 20
233.7517965333
 10
238.8120000316
 20
239.1106968614
 10
239.3580984002
 20
244.5272059318
  0
LINE
  5
258
100
AcDbEntity
  8
0
100
AcDbLine
 62
7
  6
CONTINUOUS
 10
237.5827517262
 20
259.0461107072
 11
237.554379334
 21
259.1409867656
  0
LINE
  5
259
100
AcDbEntity
  8
0
100
AcDbLine
 62
7
  6
CONTINUOUS
 10
237.5786518385
 20
259.0450562499
 11
237.554379334
 21
259.1409867656
  0
LINE
  5
25A
100
AcDbEntity
  8
0
100
AcDbLine
 62
7
  6
CONTINUOUS
 10
238.8122537159
 20
254.9914250679
 11
237.6420793103
 21
260.3497320046
  0
ARC
  5
25B
100
AcDbEntity
  8
0
100
AcDbCircle
 62
9
  6
CONTINUOUS
 10
188.3519926923
 20
246.7018111646
 40
51.1422038832
100
AcDbArc
 50
15.2868735785
 51
15.4643844389
  0
ARC
  5
25C
100
AcDbEntity
  8
0
100
AcDbCircle
 62
9
  6
CONTINUOUS
 10
188.4275378845
 20
246.7224676671
 40
51.0638855131
100
AcDbArc
 50
15.145339146
 51
15.2868646189
  0
ARC
  5
25D
100
AcDbEntity
  8
0
100
AcDbCircle
 62
7
  6
CONTINUOUS
 10
195.7261397134
 20
246.5758988713
 40
43.6747312804
100
AcDbArc
 50
11.1546528529
 51
16.590211262
  0
ARC
  5
25E
100
AcDbEntity
  8
0
100
AcDbCircle
 62
7
  6
CONTINUOUS
 10
195.9167204341
 20
246.6152784833
 40
43.4801326395
100
AcDbArc
 50
10.4364919237
 51
11.1523252811
  0
ARC
  5
25F
100
AcDbEntity
  8
0
100
AcDbCircle
 62
7
  6
CONTINUOUS
 10
195.942631921
 20
246.5655415743
 40
43.452493807
100
AcDbArc
 50
2.8133114435
 51
16.6857633876
  0
ARC
  5
260
100
AcDbEntity
  8
0
100
AcDbCircle
 62
7
  6
CONTINUOUS
 10
196.0234000087
 20
246.6342258475
 40
43.3717857148
100
AcDbArc
 50
5.9036622585
 51
10.4374042664
  0
ARC
  5
261
100
AcDbEntity
  8
0
100
AcDbCircle
 62
7
  6
CONTINUOUS
 10
196.1235916082
 20
246.6466200823
 40
43.2708507315
100
AcDbArc
 50
4.1168529476
 51
5.9009833263
  0
ARC
  5
262
100
AcDbEntity
  8
0
100
AcDbCircle
 62
7
  6
CONTINUOUS
 10
196.164977319
 20
246.6496147555
 40
43.2293568178
100
AcDbArc
 50
2.7147173072
 51
4.1168319645
  0
ARC
  5
263
100
AcDbEntity
  8
0
100
AcDbCircle
 62
7
  6
CONTINUOUS
 10
196.1766294485
 20
246.5884251279
 40
43.2176566319
100
AcDbArc
 50
1.6234677571
 51
2.7982364151
  0
ARC
  5
264
100
AcDbEntity
  8
0
100
AcDbCircle
 62
7
  6
CONTINUOUS
 10
196.2257657284
 20
246.5897661101
 40
43.1685019007
100
AcDbArc
 50
0.4269639138
 51
1.5175012926
  0
ARC
  5
265
100
AcDbEntity
  8
0
100
AcDbCircle
 62
7
  6
CONTINUOUS
 10
196.226383448
 20
246.6525515601
 40
43.1678805063
100
AcDbArc
 50
1.5416558314
 51
2.7146839548
  0
ARC
  5
266
100
AcDbEntity
  8
0
100
AcDbCircle
 62
7
  6
CONTINUOUS
 10
196.2667187219
 20
246.5901513128
 40
43.127547174
100
AcDbArc
 50
0.021808789
 51
0.4268576108
  0
ARC
  5
267
100
AcDbEntity
  8
0
100
AcDbCircle
 62
9
  6
CONTINUOUS
 10
196.3818383522
 20
246.3030479793
 40
43.0124272833
100
AcDbArc
 50
0.0937281965
 51
0.3844883076
  0
ARC
  5
268
100
AcDbEntity
  8
0
100
AcDbCircle
 62
9
  6
CONTINUOUS
 10
196.7912955955
 20
246.3077959022
 40
42.6029474451
100
AcDbArc
 50
0.381798365
 51
1.9287707717
  0
ARC
  5
269
100
AcDbEntity
  8
0
100
AcDbCircle
 62
9
  6
CONTINUOUS
 10
197.3156137464
 20
246.3257847841
 40
42.0783208999
100
AcDbArc
 50
1.928319125
 51
3.2453105155
  0
ARC
  5
26A
100
AcDbEntity
  8
0
100
AcDbCircle
 62
7
  6
CONTINUOUS
 10
179.3776987259
 20
247.5461062891
 40
60.016578458
100
AcDbArc
 50
359.2003777731
 51
359.9644619603
  0
ARC
  5
26B
100
AcDbEntity
  8
0
100
AcDbCircle
 62
9
  6
CONTINUOUS
 10
190.1813502947
 20
247.15899781
 40
49.2569519364
100
AcDbArc
 50
9.7261468031
 51
15.1882008305
  0
ARC
  5
26C
100
AcDbEntity
  8
0
100
AcDbCircle
 62
7
  6
CONTINUOUS
 10
176.5985089396
 20
247.0518526767
 40
47.5
100
AcDbArc
 50
342.226003195
 51
344.7424767101
  0
ARC
  5
26D
100
AcDbEntity
  8
0
100
AcDbCircle
 62
7
  6
CONTINUOUS
 10
176.5985089396
 20
247.0518526767
 40
47.5
100
AcDbArc
 50
15.2575232899
 51
17.773996805
  0
ARC
  5
26E
100
AcDbEntity
  8
0
100
AcDbCircle
 62
9
  6
CONTINUOUS
 10
191.9687399495
 20
247.4743688076
 40
47.4419756795
100
AcDbArc
 50
7.8706440845
 51
9.7154250007
  0
ARC
  5
26F
100
AcDbEntity
  8
0
100
AcDbCircle
 62
9
  6
CONTINUOUS
 10
193.6862761609
 20
247.6908610205
 40
45.7109779863
100
AcDbArc
 50
3.4374623684
 51
7.8966422383
  0
ARC
  5
270
100
AcDbEntity
  8
0
100
AcDbCircle
 62
9
  6
CONTINUOUS
 10
194.7701779184
 20
247.7622485226
 40
44.6247464575
100
AcDbArc
 50
2.566437984
 51
3.4294128685
  0
ARC
  5
271
100
AcDbEntity
  8
0
100
AcDbCircle
 62
9
  6
CONTINUOUS
 10
195.3194652781
 20
247.78600872
 40
44.0749461279
100
AcDbArc
 50
1.1795474382
 51
2.5675553318
  0
ARC
  5
272
100
AcDbEntity
  8
0
100
AcDbCircle
 62
7
  6
CONTINUOUS
 10
195.5618622961
 20
247.4179354096
 40
43.8448415193
100
AcDbArc
 50
15.4603690065
 51
16.7139028278
  0
ARC
  5
273
100
AcDbEntity
  8
0
100
AcDbCircle
 62
7
  6
CONTINUOUS
 10
196.0007733387
 20
247.5228682369
 40
43.3938432125
100
AcDbArc
 50
1.5548894695
 51
15.4813172253
  0
ARC
  5
274
100
AcDbEntity
  8
0
100
AcDbCircle
 62
7
  6
CONTINUOUS
 10
196.2239153975
 20
247.5130959999
 40
43.1703523384
100
AcDbArc
 50
0.4269738894
 51
1.5745045311
  0
ARC
  5
275
100
AcDbEntity
  8
0
100
AcDbCircle
 62
7
  6
CONTINUOUS
 10
196.2708678528
 20
247.5135122888
 40
43.1233980364
100
AcDbArc
 50
0.0000197225
 51
0.2933078999
  0
ARC
  5
276
100
AcDbEntity
  8
0
100
AcDbCircle
 62
7
  6
CONTINUOUS
 10
213.0942658902
 20
237.8743516754
 40
9.9999999994
100
AcDbArc
 50
341.8051276629
 51
360.0
  0
ARC
  5
277
100
AcDbEntity
  8
0
100
AcDbCircle
 62
9
  6
CONTINUOUS
 10
237.7158167514
 20
235.8934768087
 40
2.1958140948
100
AcDbArc
 50
255.684556745
 51
256.1760380398
  0
ARC
  5
278
100
AcDbEntity
  8
0
100
AcDbCircle
 62
7
  6
CONTINUOUS
 10
237.1595832896
 20
233.885112419
 40
0.5
100
AcDbArc
 50
272.0129155557
 51
344.5376484055
  0
ARC
  5
279
100
AcDbEntity
  8
0
100
AcDbCircle
 62
7
  6
CONTINUOUS
 10
215.0742658892
 20
232.7518526767
 40
0.2
100
AcDbArc
 50
180.0
 51
270.0
  0
ARC
  5
27A
100
AcDbEntity
  8
0
100
AcDbCircle
 62
7
  6
CONTINUOUS
 10
223.8433995908
 20
258.1272249476
 40
13.3343976174
100
AcDbArc
 50
358.502235736
 51
0.791040131
  0
ARC
  5
27B
100
AcDbEntity
  8
0
100
AcDbCircle
 62
9
  6
CONTINUOUS
 10
240.0882306217
 20
259.7265743479
 40
2.5339589957
100
AcDbArc
 50
173.1677265593
 51
174.3004817146
  0
ARC
  5
27C
100
AcDbEntity
  8
0
100
AcDbCircle
 62
9
  6
CONTINUOUS
 10
236.9273751005
 20
258.7734953282
 40
1.024791161
100
AcDbArc
 50
283.8827471747
 51
284.949991583
  0
ARC
  5
27D
100
AcDbEntity
  8
0
100
AcDbCircle
 62
9
  6
CONTINUOUS
 10
237.1812257797
 20
257.8395471404
 40
0.5973580858
100
AcDbArc
 50
82.7205084099
 51
90.7800674217
  0
ARC
  5
27E
100
AcDbEntity
  8
0
100
AcDbCircle
 62
7
  6
CONTINUOUS
 10
237.0727072209
 20
258.9445316922
 40
0.5362175114
100
AcDbArc
 50
71.5557850972
 51
85.7825636104
  0
ARC
  5
27F
100
AcDbEntity
  8
0
100
AcDbCircle
 62
7
  6
CONTINUOUS
 10
237.0728847922
 20
258.9482817738
 40
0.5324645347
100
AcDbArc
 50
85.7719433397
 51
88.6029478687
  0
ARC
  5
280
100
AcDbEntity
  8
0
100
AcDbCircle
 62
9
  6
CONTINUOUS
 10
237.1552471965
 20
260.2045204363
 40
0.5061589047
100
AcDbArc
 50
33.4273528601
 51
87.9624432075
  0
ARC
  5
281
100
AcDbEntity
  8
0
100
AcDbCircle
 62
7
  6
CONTINUOUS
 10
237.1601795682
 20
260.216437425
 40
0.5
100
AcDbArc
 50
15.4611928885
 51
88.3193026113
  0
ARC
  5
282
100
AcDbEntity
  8
0
100
AcDbCircle
 62
9
  6
CONTINUOUS
 10
237.1616133459
 20
260.2098217629
 40
0.4979262666
100
AcDbArc
 50
14.9574969027
 51
33.3217854515
  0
ARC
  5
283
100
AcDbEntity
  8
0
100
AcDbCircle
 62
7
  6
CONTINUOUS
 10
215.0742658892
 20
261.3518526767
 40
0.2
100
AcDbArc
 50
90.0
 51
180.0
  0
SPLINE
  5
284
100
AcDbEntity
  8
0
100
AcDbSpline
 62
7
  6
CONTINUOUS
 70
0
 71
3
 72
11
 73
7
 74
0
 42
0.0000001
 43
0.0000001
 44
0.0000000001
 40
0.0
 40
0.0
 40
0.0
 40
0.0
 40
0.0644348344
 40
0.2524714326
 40
0.5649755236
 40
1.0
 40
1.0
 40
1.0
 40
1.0
 10
239.3807668677
 20
245.8003601102
 30
0.0
 10
239.3799397068
 20
245.8003558351
 30
0.0
 10
239.3804951551
 20
245.8054024229
 30
0.0
 10
239.3791475933
 20
245.8109029497
 30
0.0
 10
239.3793113897
 20
245.8239161204
 30
0.0
 10
239.3789748417
 20
245.833180692
 30
0.0
 10
239.378901783
 20
245.8387647715
 30
0.0
  0
LINE
  5
285
100
AcDbEntity
  8
0
100
AcDbLine
 62
7
  6
CONTINUOUS
 10
237.0957060897
 20
259.3837063691
 11
225.69426589
 21
259.6622709948
  0
SPLINE
  5
286
100
AcDbEntity
  8
0
100
AcDbSpline
 62
7
  6
CONTINUOUS
 70
0
 71
3
 72
9
 73
5
 74
0
 42
0.0000001
 43
0.0000001
 44
0.0000000001
 40
0.0
 40
0.0
 40
0.0
 40
0.0
 40
0.5103249977
 40
1.0
 40
1.0
 40
1.0
 40
1.0
 10
237.0957060897
 20
259.3837063691
 30
0.0
 10
237.1995339002
 20
259.3811711754
 30
0.0
 10
237.4069771359
 20
259.3149573206
 30
0.0
 10
237.5369321084
 20
259.1372018277
 30
0.0
 10
237.565509262
 20
259.0417308925
 30
0.0
  0
SPLINE
  5
287
100
AcDbEntity
  8
0
100
AcDbSpline
 62
7
  6
CONTINUOUS
 70
0
 71
3
 72
9
 73
5
 74
0
 42
0.0000001
 43
0.0000001
 44
0.0000000001
 40
0.0
 40
0.0
 40
0.0
 40
0.0
 40
0.5104011277
 40
1.0
 40
1.0
 40
1.0
 40
1.0
 10
237.0858666728
 20
260.3670029873
 30
0.0
 10
237.1892836118
 20
260.3644863947
 30
0.0
 10
237.3960355013
 20
260.2993695688
 30
0.0
 10
237.5258412503
 20
260.1224408909
 30
0.0
 10
237.554379334
 20
260.0274017218
 30
0.0
  0
SPLINE
  5
288
100
AcDbEntity
  8
0
100
AcDbSpline
 62
7
  6
CONTINUOUS
 70
0
 71
3
 72
9
 73
5
 74
0
 42
0.0000001
 43
0.0000001
 44
0.0000000001
 40
0.0
 40
0.0
 40
0.0
 40
0.0
 40
0.5450723346
 40
1.0
 40
1.0
 40
1.0
 40
1.0
 10
237.1765263759
 20
258.3113171902
 30
0.0
 10
237.1744512063
 20
258.3341324498
 30
0.0
 10
237.1758199787
 20
258.3762698454
 30
0.0
 10
237.1744214545
 20
258.4182821473
 30
0.0
 10
237.1731116306
 20
258.4373578816
 30
0.0
  0
SPLINE
  5
289
100
AcDbEntity
  8
0
100
AcDbSpline
 62
9
  6
CONTINUOUS
 70
0
 71
3
 72
12
 73
8
 74
0
 42
0.0000001
 43
0.0000001
 44
0.0000000001
 40
0.0
 40
0.0
 40
0.0
 40
0.0
 40
0.1061266964
 40
0.2011446976
 40
0.3260300299
 40
0.6454224042
 40
1.0
 40
1.0
 40
1.0
 40
1.0
 10
237.6414784805
 20
233.751891341
 30
0.0
 10
237.6370663578
 20
233.7360652847
 30
0.0
 10
237.6020229091
 20
233.7204926938
 30
0.0
 10
237.5541547377
 20
233.7142439568
 30
0.0
 10
237.4694740987
 20
233.7125034971
 30
0.0
 10
237.3469088109
 20
233.7271168694
 30
0.0
 10
237.2444524597
 20
233.7481501686
 30
0.0
 10
237.1911498505
 20
233.7612657071
 30
0.0
  0
SPLINE
  5
28A
100
AcDbEntity
  8
0
100
AcDbSpline
 62
9
  6
CONTINUOUS
 70
0
 71
3
 72
11
 73
7
 74
0
 42
0.0000001
 43
0.0000001
 44
0.0000000001
 40
0.0
 40
0.0
 40
0.0
 40
0.0
 40
0.26007037
 40
0.5139197695
 40
0.7605704474
 40
1.0
 40
1.0
 40
1.0
 40
1.0
 10
237.1719605923
 20
233.7660803575
 30
0.0
 10
237.7369498752
 20
235.7976456938
 30
0.0
 10
238.6016549627
 20
239.8881057103
 30
0.0
 10
239.0528907899
 20
246.0579610847
 30
0.0
 10
238.6265834498
 20
252.0632908426
 30
0.0
 10
237.7510586687
 20
255.9251233476
 30
0.0
 10
237.1726215904
 20
257.7782530922
 30
0.0
  0
SPLINE
  5
28B
100
AcDbEntity
  8
0
100
AcDbSpline
 62
7
  6
CONTINUOUS
 70
0
 71
3
 72
16
 73
12
 74
0
 42
0.0000001
 43
0.0000001
 44
0.0000000001
 40
0.0
 40
0.0
 40
0.0
 40
0.0
 40
0.3986418478
 40
0.5712185038
 40
0.7193954235
 40
0.8392111715
 40
0.9272950698
 40
0.9586552182
 40
0.9812765122
 40
0.9949929345
 40
1.0
 40
1.0
 40
1.0
 40
1.0
 10
237.1728610926
 20
233.7661406209
 30
0.0
 10
237.1740947697
 20
233.7154496183
 30
0.0
 10
237.1756403321
 20
233.6427999253
 30
0.0
 10
237.1769373231
 20
233.5513223193
 30
0.0
 10
237.1774209756
 20
233.4952431162
 30
0.0
 10
237.1773949468
 20
233.4500639408
 30
0.0
 10
237.1770937853
 20
233.4193881841
 30
0.0
 10
237.1763861737
 20
233.4016604964
 30
0.0
 10
237.1760300388
 20
233.3925050534
 30
0.0
 10
237.1752144128
 20
233.3882781368
 30
0.0
 10
237.1749694924
 20
233.3848486924
 30
0.0
 10
237.1743329203
 20
233.384828785
 30
0.0
  0
SPLINE
  5
28C
100
AcDbEntity
  8
0
100
AcDbSpline
 62
9
  6
CONTINUOUS
 70
0
 71
3
 72
11
 73
7
 74
0
 42
0.0000001
 43
0.0000001
 44
0.0000000001
 40
0.0
 40
0.0
 40
0.0
 40
0.0
 40
0.1720970805
 40
0.4030468257
 40
0.6878846491
 40
1.0
 40
1.0
 40
1.0
 40
1.0
 10
237.642661405
 20
258.1470842036
 30
0.0
 10
237.6452680616
 20
258.1120974241
 30
0.0
 10
237.6149600093
 20
258.0291602935
 30
0.0
 10
237.5138733355
 20
257.9298102862
 30
0.0
 10
237.3684467534
 20
257.8416684946
 30
0.0
 10
237.2532429119
 20
257.7999485216
 30
0.0
 10
237.1917500264
 20
257.7836042526
 30
0.0
  0
SPLINE
  5
28D
100
AcDbEntity
  8
0
100
AcDbSpline
 62
9
  6
CONTINUOUS
 70
0
 71
3
 72
10
 73
6
 74
0
 42
0.0000001
 43
0.0000001
 44
0.0000000001
 40
0.0
 40
0.0
 40
0.0
 40
0.0
 40
0.4658559978
 40
0.7300925153
 40
1.0
 40
1.0
 40
1.0
 40
1.0
 10
237.6426644502
 20
258.1470849732
 30
0.0
 10
237.6186422691
 20
258.2211228749
 30
0.0
 10
237.5378337755
 20
258.3255337511
 30
0.0
 10
237.3891304546
 20
258.4038199584
 30
0.0
 10
237.3016440299
 20
258.4263928293
 30
0.0
 10
237.2569127323
 20
258.432127994
 30
0.0
  0
SPLINE
  5
28E
100
AcDbEntity
  8
0
100
AcDbSpline
 62
9
  6
CONTINUOUS
 70
0
 71
3
 72
9
 73
5
 74
0
 42
0.0000001
 43
0.0000001
 44
0.0000000001
 40
0.0
 40
0.0
 40
0.0
 40
0.0
 40
0.2283817661
 40
1.0
 40
1.0
 40
1.0
 40
1.0
 10
237.0957110976
 20
259.3837062379
 30
0.0
 10
237.0996120729
 20
259.3114856022
 30
0.0
 10
237.1194030088
 20
258.9954046891
 30
0.0
 10
237.1480706435
 20
258.6799282913
 30
0.0
 10
237.1732039305
 20
258.4368614974
 30
0.0
  0
SPLINE
  5
28F
100
AcDbEntity
  8
0
100
AcDbSpline
 62
7
  6
CONTINUOUS
 70
0
 71
3
 72
8
 73
4
 74
0
 42
0.0000001
 43
0.0000001
 44
0.0000000001
 40
0.0
 40
0.0
 40
0.0
 40
0.0
 40
1.0
 40
1.0
 40
1.0
 40
1.0
 10
222.5942589641
 20
258.5410866693
 30
0.0
 10
227.453896034
 20
258.5093714883
 30
0.0
 10
232.3134757351
 20
258.4692525034
 30
0.0
 10
237.1731116306
 20
258.4373578816
 30
0.0
  0
SPLINE
  5
290
100
AcDbEntity
  8
0
100
AcDbSpline
 62
7
  6
CONTINUOUS
 70
0
 71
3
 72
8
 73
4
 74
0
 42
0.0000001
 43
0.0000001
 44
0.0000000001
 40
0.0
 40
0.0
 40
0.0
 40
0.0
 40
1.0
 40
1.0
 40
1.0
 40
1.0
 10
237.1732611202
 20
260.7109704618
 30
0.0
 10
232.3136162874
 20
260.854183626
 30
0.0
 10
227.4539092326
 20
260.9952793323
 30
0.0
 10
222.5942587636
 20
261.1383011138
 30
0.0
  0
SPLINE
  5
291
100
AcDbEntity
  8
0
100
AcDbSpline
 62
9
  6
CONTINUOUS
 70
0
 71
3
 72
9
 73
5
 74
0
 42
0.0000001
 43
0.0000001
 44
0.0000000001
 40
0.0
 40
0.0
 40
0.0
 40
0.0
 40
0.2299639834
 40
1.0
 40
1.0
 40
1.0
 40
1.0
 10
237.1732455369
 20
260.7103754491
 30
0.0
 10
237.1701312296
 20
260.7023403431
 30
0.0
 10
237.1573093746
 20
260.6671203729
 30
0.0
 10
237.1471272717
 20
260.6309758488
 30
0.0
 10
237.1403134899
 20
260.6029359988
 30
0.0
  0
SPLINE
  5
292
100
AcDbEntity
  8
0
100
AcDbSpline
 62
9
  6
CONTINUOUS
 70
0
 71
3
 72
9
 73
5
 74
0
 42
0.0000001
 43
0.0000001
 44
0.0000000001
 40
0.0
 40
0.0
 40
0.0
 40
0.0
 40
0.2231107408
 40
1.0
 40
1.0
 40
1.0
 40
1.0
 10
237.1403134899
 20
260.6029359988
 30
0.0
 10
237.1361331111
 20
260.5857330418
 30
0.0
 10
237.1191807571
 20
260.5081943256
 30
0.0
 10
237.1082173729
 20
260.4294465858
 30
0.0
 10
237.1016270792
 20
260.36815455
 30
0.0
  0
SPLINE
  5
293
100
AcDbEntity
  8
0
100
AcDbSpline
 62
9
  6
CONTINUOUS
 70
0
 71
3
 72
9
 73
5
 74
0
 42
0.0000001
 43
0.0000001
 44
0.0000000001
 40
0.0
 40
0.0
 40
0.0
 40
0.0
 40
0.2288384884
 40
1.0
 40
1.0
 40
1.0
 40
1.0
 10
237.5655145901
 20
259.0417255053
 30
0.0
 10
237.5694942326
 20
258.9733393913
 30
0.0
 10
237.5894017103
 20
258.6746455025
 30
0.0
 10
237.6178898274
 20
258.3765730702
 30
0.0
 10
237.6426668319
 20
258.1470627472
 30
0.0
  0
SPLINE
  5
294
100
AcDbEntity
  8
0
100
AcDbSpline
 62
9
  6
CONTINUOUS
 70
0
 71
3
 72
9
 73
5
 74
0
 42
0.0000001
 43
0.0000001
 44
0.0000000001
 40
0.0
 40
0.0
 40
0.0
 40
0.0
 40
0.494096647
 40
1.0
 40
1.0
 40
1.0
 40
1.0
 10
237.6426640181
 20
258.1470612794
 30
0.0
 10
238.111504154
 20
256.6360076418
 30
0.0
 10
238.8669497114
 20
253.5147308168
 30
0.0
 10
239.2347080323
 20
250.3252060222
 30
0.0
 10
239.3264539522
 20
248.707883641
 30
0.0
  0
SPLINE
  5
295
100
AcDbEntity
  8
0
100
AcDbSpline
 62
9
  6
CONTINUOUS
 70
0
 71
3
 72
9
 73
5
 74
0
 42
0.0000001
 43
0.0000001
 44
0.0000000001
 40
0.0
 40
0.0
 40
0.0
 40
0.0
 40
0.2304445872
 40
1.0
 40
1.0
 40
1.0
 40
1.0
 10
237.6426673003
 20
260.3383333912
 30
0.0
 10
237.6396099293
 20
260.330913395
 30
0.0
 10
237.6270350239
 20
260.2984294946
 30
0.0
 10
237.6169904727
 20
260.2650038972
 30
0.0
 10
237.6102351128
 20
260.2390696136
 30
0.0
  0
SPLINE
  5
296
100
AcDbEntity
  8
0
100
AcDbSpline
 62
9
  6
CONTINUOUS
 70
0
 71
3
 72
9
 73
5
 74
0
 42
0.0000001
 43
0.0000001
 44
0.0000000001
 40
0.0
 40
0.0
 40
0.0
 40
0.0
 40
0.2329803279
 40
1.0
 40
1.0
 40
1.0
 40
1.0
 10
237.6102351128
 20
260.2390696136
 30
0.0
 10
237.6077459256
 20
260.2295134557
 30
0.0
 10
237.5976440856
 20
260.1883449269
 30
0.0
 10
237.5896866978
 20
260.1466678656
 30
0.0
 10
237.5844424
 20
260.1145829831
 30
0.0
  0
SPLINE
  5
297
100
AcDbEntity
  8
0
100
AcDbSpline
 62
9
  6
CONTINUOUS
 70
0
 71
3
 72
9
 73
5
 74
0
 42
0.0000001
 43
0.0000001
 44
0.0000000001
 40
0.0
 40
0.0
 40
0.0
 40
0.0
 40
0.2408878078
 40
1.0
 40
1.0
 40
1.0
 40
1.0
 10
237.5844424
 20
260.1145829831
 30
0.0
 10
237.5833101324
 20
260.1076557117
 30
0.0
 10
237.5787797133
 20
260.0788707715
 30
0.0
 10
237.5749026224
 20
260.0499843628
 30
0.0
 10
237.5722661398
 20
260.0280223832
 30
0.0
  0
SPLINE
  5
298
100
AcDbEntity
  8
0
100
AcDbSpline
 62
7
  6
CONTINUOUS
 70
0
 71
3
 72
9
 73
5
 74
0
 42
0.0000001
 43
0.0000001
 44
0.0000000001
 40
0.0
 40
0.0
 40
0.0
 40
0.0
 40
0.491670279
 40
1.0
 40
1.0
 40
1.0
 40
1.0
 10
237.554379334
 20
259.1409867656
 30
0.0
 10
237.5329668404
 20
259.2122958843
 30
0.0
 10
237.4504576511
 20
259.3477089702
 30
0.0
 10
237.3153526245
 20
259.4287700916
 30
0.0
 10
237.2423563533
 20
259.4532048597
 30
0.0
  0
SPLINE
  5
299
100
AcDbEntity
  8
0
100
AcDbSpline
 62
7
  6
CONTINUOUS
 70
0
 71
3
 72
9
 73
5
 74
0
 42
0.0000001
 43
0.0000001
 44
0.0000000001
 40
0.0
 40
0.0
 40
0.0
 40
0.0
 40
0.5010597358
 40
1.0
 40
1.0
 40
1.0
 40
1.0
 10
223.0942681609
 20
253.7679236098
 30
0.0
 10
223.0942869538
 20
254.2489526936
 30
0.0
 10
223.0132462792
 20
255.2110228601
 30
0.0
 10
222.7610721017
 20
256.1436097357
 30
0.0
 10
222.5942658889
 20
256.5926211686
 30
0.0
  0
ELLIPSE
  5
29A
100
AcDbEntity
  8
0
100
AcDbEllipse
 62
7
  6
CONTINUOUS
 10
204.354670901
 20
247.903771009
 30
0.0
 11
88.0814070435
 21
-5.5513715844
 31
0.0
 40
0.1523676836
 41
1.3357043998
 42
1.3532187573
  0
ELLIPSE
  5
29B
100
AcDbEntity
  8
0
100
AcDbEllipse
 62
7
  6
CONTINUOUS
 10
204.354670901
 20
246.1999343444
 30
0.0
 11
88.0814070435
 21
5.5513715844
 31
0.0
 40
0.1523676836
 41
1.3328374183
 42
1.3340132597
  0
ENDSEC
  0
SECTION
  2
OBJECTS
  0
DICTIONARY
  5
C
100
AcDbDictionary
280
0
281
1
  3
ACAD_GROUP
350
D
  3
ACAD_MLINESTYLE
350
17
  3
ACAD_LAYOUT
350
1A
  3
ACAD_PLOTSETTINGS
350
19
  3
ACAD_PLOTSTYLENAME
350
E
  0
DICTIONARY
  5
D
102
{ACAD_REACTORS
330
C
102
}
100
AcDbDictionary
280
0
281
1
  0
ACDBDICTIONARYWDFLT
  5
E
102
{ACAD_REACTORS
330
C
102
}
100
AcDbDictionary
281
1
  3
Normal
350
F
100
AcDbDictionaryWithDefault
340
F
  0
DICTIONARY
  5
17
102
{ACAD_REACTORS
330
C
102
}
100
AcDbDictionary
280
0
281
1
  3
Standard
350
18
  0
DICTIONARY
  5
19
102
{ACAD_REACTORS
330
C
102
}
100
AcDbDictionary
281
1
  0
DICTIONARY
  5
1A
102
{ACAD_REACTORS
330
C
102
}
100
AcDbDictionary
281
1
  3
Model
350
29C
  3
Layout1
350
29D
  0
ACDBPLACEHOLDER
  5
F
102
{ACAD_REACTORS
330
E
102
}
  0
MLINESTYLE
  5
18
102
{ACAD_REACTORS
330
17
102
}
100
AcDbMlineStyle
  2
STANDARD
 70
0
  3

 62
256
 51
90.0
 52
90.0
 71
2
 49
0.5
 62
256
  6
BYLAYER
 49
-0.5
 62
256
  6
BYLAYER
  0
LAYOUT
  5
29C
102
{ACAD_REACTORS
330
1A
102
}
100
AcDbPlotSettings
  1

  2
none_device
  4
ANSI_C_(22.00_x_17.00_Inches)
  6

 40
0.0
 41
0.0
 42
0.0
 43
0.0
 44
558.8
 45
431.8
 46
0.0
 47
0.0
 48
0.0
 49
0.0
140
0.0
141
0.0
142
1.0
143
1.0
 70
1024
 72
1
 73
0
 74
0
  7

 75
0
147
1.0
148
0.0
149
0.0
100
AcDbLayout
  1
Model
 70
0
 71
0
 10
0.0
 20
0.0
 11
558.8
 21
431.8
 12
0.0
 22
0.0
 32
0.0
 14
0.0
 24
0.0
 34
0.0
 15
0.0
 25
0.0
 35
0.0
146
0.0
 13
0.0
 23
0.0
 33
0.0
 16
1.0
 26
0.0
 36
0.0
 17
0.0
 27
1.0
 37
0.0
 76
0
330
21A
345
0
346
0
  0
LAYOUT
  5
29D
102
{ACAD_REACTORS
330
1A
102
}
100
AcDbPlotSettings
  1

  2
none_device
  4
ANSI_C_(22.00_x_17.00_Inches)
  6

 40
0.0
 41
0.0
 42
0.0
 43
0.0
 44
558.8
 45
431.8
 46
0.0
 47
0.0
 48
0.0
 49
0.0
140
0.0
141
0.0
142
1.0
143
1.0
 70
0
 72
1
 73
0
 74
0
  7

 75
0
147
1.0
148
0.0
149
0.0
100
AcDbLayout
  1
Layout1
 70
0
 71
1
 10
0.0
 20
0.0
 11
558.8
 21
431.8
 12
0.0
 22
0.0
 32
0.0
 14
0.0
 24
0.0
 34
0.0
 15
0.0
 25
0.0
 35
0.0
146
0.0
 13
0.0
 23
0.0
 33
0.0
 16
1.0
 26
0.0
 36
0.0
 17
0.0
 27
1.0
 37
0.0
 76
0
330
21B
345
0
346
0
  0
ENDSEC
  0
EOF
